Misc Unsigned Bands

Misc Unsigned Bands - After The Sirens - The Lights At Neros Party (intro) guitar tab

The lights at nero's party - After the sirens

Tabbed by:Scott Krogstad

Email:webmaster at tabs-database.com.com

Tuning:Drop d

|------------10-9-7----7-----------|

|-------------------10---10--------|

|---44444444----------------11-9---|

|---44444444-----------------------|

|---22222222-----------------------|

|----------------------------------| x2

PM---------|

|----------------------------------------|

|----------------------------------------|

|----------------------------------------|

|----------------------------------------|

|---55555555---000000000022222222--------|

|---55555555---000000000022222222--------|

|------------10-9-7----7-----------|

|-------------------10---10--------|

|---44444444----------------11-9---|

|---44444444-----------------------|

|---22222222-----------------------|

|----------------------------------| x2

PM---------|

|----------------------------------------|

|----------------------------------------|

|----------------------------------------|

|----------------------------------------|

|---55555555---000000000022222222--------|

|---55555555---000000000022222222--------|

this tab isnt finished yet

but it will be, soon

this tab was only my second tab

so go easy on me

PM palm mute Added by tabs-database.com and our distinguished partners

Get this song at:  amazon.com

Share your thoughts

0 Comments found