Misc Unsigned Bands

Your Morning Coffee - No Name Yet Bass Tabs



More from Misc Unsigned Bands

Misc Unsigned Bands Tabs
Misc Unsigned Bands Chords
Misc Unsigned Bands Bass

verse

G|--------------------------------------------------|

D|--------------------------------------------------|

A|-0000--------0000--------0000--------0000---------|

D|-----44--44------22--22------44--44------00002222-|

1 + 2 + 3 + 4 + 1 + 2 + 3 + 4 + 1 + 2 + 3 + 4 +



chorus

G|------------------------------------------------------------------|

D|------------------------------------------------------------------|

A|-4---4---0000----4---4---0000----4---4---0000---------------------|

D|----4---4----2222---4---4----2222---4---4----22220000000022222222-|

1 + 2 + 3 + 4 + 1 + 2 + 3 + 4 + 1 + 2 + 3 + 4 + 1 + 2 + 3 + 4 +



(yet to be figured out, bass solo)



verse2

G|------------------------------------------------|

D|------------------------------------------------|

A|-0000--------0000--------0000--------0000-------|

D|-----44--44------22--22------44--44------00--00-|

1 + 2 + 3 + 4 + 1 + 2 + 3 + 4 + 1 + 2 + 3 + 4 +



verse3

G|--------------------------------------------------|

D|--------------------------------------------------|

A|-0000--------0000--------0000--------0000---------|

D|-----44--44------22--22------44--44------00002222-|

1 + 2 + 3 + 4 + 1 + 2 + 3 + 4 + 1 + 2 + 3 + 4 +



chorus

G|------------------------------------------------------------------|

D|------------------------------------------------------------------|

A|-4---4---0000----4---4---0000----4---4---0000---------------------|

D|----4---4----2222---4---4----2222---4---4----22220000000022222222-|

1 + 2 + 3 + 4 + 1 + 2 + 3 + 4 + 1 + 2 + 3 + 4 + 1 + 2 + 3 + 4 +



G|------------------------------------------------------------------|

D|------------------------------------------------------------------|

A|-4---4---0000----4---4---0000----4---4---0000---------------------|

D|----4---4----2222---4---4----2222---4---4----22220000000022222222-|

1 + 2 + 3 + 4 + 1 + 2 + 3 + 4 + 1 + 2 + 3 + 4 + 1 + 2 + 3 + 4 +



Added by tabs-database.com and our distinguished partners
Get this song at amazon.com      Ebay     Ringtones Ringtones  


Learn to play: Songwriting, Piano, Harmonica, Guitar

Related Misc Unsigned Bands Tabs

Big Fat Jam - All In The Family Intro tabs
Kool Shades - Placebos tabs
Blades - Mr Dj tabs
The Immortal Change - Harvest Of Sorrow tabs
Dubious Pastry - Everything In Life Aint Free Ver 2 tabs
Vertical Leap - Typical You tabs
Captain Gnarboots - White Blanket tabs
7 Wednesdays - Unforgivable tabs
Mysteria - Stairway tabs
Patient Zero - Half Dead Of Half Alive tabs
The Army Nophis - Johnnys Way Bass tabs
Spiral Staircase - First tabs
Razorapple - Blah tabs
Breed77 - Rise tabs
Chumpzilla - Hows It Taste Samuel L Jackson Bass tabs
5 Degrees Kelvin - Get Lost tabs
Vision - Stir In Me tabs
Behind Our Minds - In This Room tabs
Stevo Quake Shake - Jingle Bells tabs
Blinded Youth - But Why tabs


Guitar Tabs









All tabs are property and copyright of their owners. All tabs provided for educational purposes only. Privacy Policy, DMCA