Misc Unsigned Bands

Victims Of Plague - System Tabs



More from Misc Unsigned Bands

Misc Unsigned Bands Tabs
Misc Unsigned Bands Chords
Misc Unsigned Bands Bass



E E E E E E E E E E E E E E E E E E

D||--------------------|--------------------|--------------------|

A||-----------0--------|-----------0--------|-----------1--------|

F||--------2-----2-----|--------2-----2-----|--------2-----2-----|

C||-----2-----------2--|-----2-----------2--|-----2-----------2--|

G||--0-----------------|--0-----------------|--0-----------------|

C||--------------------|--------------------|--------------------|





E E E E E E E E E E E E E E E E E E

--------------------|--------------------|--------------------|

-----------1--------|-----------0--------|-----------0--------|

--------2-----2-----|--------2-----2-----|--------2-----2-----|

-----2-----------2--|-----2-----------2--|-----2-----------2--|

--0-----------------|--0-----------------|--0-----------------|

--------------------|--------------------|--------------------|





E E E E E E E E E E E E E E E E E E

--------------------|--------------------|--------------------|

-----------1--------|-----------1--------|-----------1--------|

--------2-----2-----|--------2-----2-----|--------2-----2-----|

-----2-----------2--|-----2-----------2--|-----2-----------2--|

--0-----------------|--0-----------------|--0-----------------|

--------------------|--------------------|--------------------|





E E E E E E E E E E E E E E E E E E

--------------------|--------------------|--------------------|

--3--------1--------|--1-----1--3-----3--|--1-----1--0-----0--|

-----2--------2-----|-----2--------2-----|-----2--------2-----|

--------2--------2--|--------------------|--------------------|

--------------------|--------------------|--------------------|

--------------------|--------------------|--------------------|





E E E E E E E E E E E E E E E E E E

--------------------|--------------------|--------------------|

-----------0--------|-----------0--------|-----------1--------|

--------2-----2-----|--------2-----2-----|--------2-----2-----|

-----2-----------2--|-----2-----------2--|-----2-----------2--|

--0-----------------|--0-----------------|--0-----------------|

--------------------|--------------------|--------------------|





E E E E E E E E E E E E E E E E E E

--------------------|--------------------|--------------------|

-----------1--------|-----------0--------|-----------0--------|

--------2-----2-----|--------2-----2-----|--------2-----2-----|

-----2-----------2--|-----2-----------2--|-----2-----------2--|

--0-----------------|--0-----------------|--0-----------------|

--------------------|--------------------|--------------------|





E E E E E E E E E E E E

--------------------|--------------------|

-----------1--------|-----------1--------|

--------2-----2-----|--------2-----2-----|

-----2-----------2--|-----2-----------2--|

--0-----------------|--0-----------------|

--------------------|--------------------|





Q. Q E E Q. Q Q. Q E

|------------------|-----------------|------------------|

|------------------|-----------------|------------------|

|--2------2--------|-----------------|--2------2--------|

|--2------2----3s--|--2--2------2----|--2------2----3s--|

|--0------0----3s--|--2--2------2----|--0------0----3s--|

|--------------3s--|--2--2------2----|--------------3s--|





E Q. Q Q. Q E E Q. Q Q. Q E

-----------------|------------------|-----------------|------------------|

-----------------|------------------|-----------------|------------------|

-----------------|--2------2--------|-----------------|--2------2--------|

--2--2------2----|--2------2----3s--|--2--2------2----|--2------2----3s--|

--2--2------2----|--0------0----3s--|--2--2------2----|--0------0----3s--|

--2--2------2----|--------------3s--|--2--2------2----|--------------3s--|





E Q. Q Q. Q E E Q. Q Q. Q E

-----------------|------------------|-----------------|------------------|

-----------------|------------------|-----------------|------------------|

-----------------|--4------4--------|-----------------|--4------4--------|

--2--2------2----|--4------4----3s--|--2--2------2----|--4------4----3s--|

--2--2------2----|--2------2----3s--|--2--2------2----|--2------2----3s--|

--2--2------2----|--------------3s--|--2--2------2----|--------------3s--|





E Q. Q Q. Q E E Q. Q Q. Q E

-----------------|------------------|-----------------|------------------|

-----------------|------------------|-----------------|------------------|

-----------------|--2------2--------|-----------------|--2------2--------|

--2--2------2----|--2------2----3s--|--2--2------2----|--2------2----3s--|

--2--2------2----|--0------0----3s--|--2--2------2----|--0------0----3s--|

--2--2------2----|--------------3s--|--2--2------2----|--------------3s--|





E Q. Q

-----------------|

-----------------|

-----------------|

--2--2------2----|

--2--2------2----|

--2--2------2----|



E E E E E E E E E E E E E E E E E E

--------------------|--------------------|--------------------|

-----------0--------|-----------0--------|-----------1--------|

--------2-----2-----|--------2-----2-----|--------2-----2-----|

-----2-----------2--|-----2-----------2--|-----2-----------2--|

--0-----------------|--0-----------------|--0-----------------|

--------------------|--------------------|--------------------|





E E E E E E E E E E E E E E E E E E

--------------------|--------------------|--------------------|

-----------1--------|-----------0--------|-----------0--------|

--------2-----2-----|--------2-----2-----|--------2-----2-----|

-----2-----------2--|-----2-----------2--|-----2-----------2--|

--0-----------------|--0-----------------|--0-----------------|

--------------------|--------------------|--------------------|





E E E E E E E E E E E E E E E E E E

--------------------|--------------------|--------------------|

-----------1--------|-----------1--------|-----------1--------|

--------2-----2-----|--------2-----2-----|--------2-----2-----|

-----2-----------2--|-----2-----------2--|-----2-----------2--|

--0-----------------|--0-----------------|--0-----------------|

--------------------|--------------------|--------------------|





E E E E E E E E E E E E E E E E E E

--------------------|--------------------|--------------------|

--3--------1--------|--1-----1--3-----3--|--1-----1--0-----0--|

-----2--------2-----|-----2--------2-----|-----2--------2-----|

--------2--------2--|--------------------|--------------------|

--------------------|--------------------|--------------------|

--------------------|--------------------|--------------------|





E E E E E E E E E E E E E E E E E E

--------------------|--------------------|--------------------|

-----------0--------|-----------0--------|-----------1--------|

--------2-----2-----|--------2-----2-----|--------2-----2-----|

-----2-----------2--|-----2-----------2--|-----2-----------2--|

--0-----------------|--0-----------------|--0-----------------|

--------------------|--------------------|--------------------|





E E E E E E E E E E E E E E E E E E

--------------------|--------------------|--------------------|

-----------1--------|-----------0--------|-----------0--------|

--------2-----2-----|--------2-----2-----|--------2-----2-----|

-----2-----------2--|-----2-----------2--|-----2-----------2--|

--0-----------------|--0-----------------|--0-----------------|

--------------------|--------------------|--------------------|





E E E E E E E E E E E E E E E E E E

--------------------|--------------------|--------------------|

-----------1--------|-----------1--------|-----------1--------|

--------2-----2-----|--------2-----2-----|--------2-----2-----|

-----2-----------2--|-----2-----------2--|-----2-----------2--|

--0-----------------|--0-----------------|--0-----------------|

--------------------|--------------------|--------------------|





E E E E E E E E E E E E E E E E E E

--------------------|--------------------|--------------------|

--3--------1--------|--1-----1--3-----3--|--1-----1--0-----0--|

-----2--------2-----|-----2--------2-----|-----2--------2-----|

--------2--------2--|--------------------|--------------------|

--------------------|--------------------|--------------------|

--------------------|--------------------|--------------------|





E E E E E E E E E E E E E E E E E E

--------------------|--------------------|--------------------|

-----------0--------|-----------0--------|-----------1--------|

--------2-----2-----|--------2-----2-----|--------2-----2-----|

-----2-----------2--|-----2-----------2--|-----2-----------2--|

--0-----------------|--0-----------------|--0-----------------|

--------------------|--------------------|--------------------|





E E E E E E

--------------------|

-----------1--------|

--------2-----2-----|

-----2-----------2--|

--0-----------------|

--------------------|





Q. Q E E Q. Q Q. Q E

|------------------|-----------------|------------------|

|------------------|-----------------|------------------|

|--2------2--------|-----------------|--2------2--------|

|--2------2----3s--|--2--2------2----|--2------2----3s--|

|--0------0----3s--|--2--2------2----|--0------0----3s--|

|--------------3s--|--2--2------2----|--------------3s--|





E Q. Q Q. Q E E Q. Q Q. Q E

-----------------|------------------|-----------------|------------------|

-----------------|------------------|-----------------|------------------|

-----------------|--2------2--------|-----------------|--2------2--------|

--2--2------2----|--2------2----3s--|--2--2------2----|--2------2----3s--|

--2--2------2----|--0------0----3s--|--2--2------2----|--0------0----3s--|

--2--2------2----|--------------3s--|--2--2------2----|--------------3s--|





E Q. Q Q. Q E E Q. Q Q. Q E

-----------------|------------------|-----------------|------------------|

-----------------|------------------|-----------------|------------------|

-----------------|--4------4--------|-----------------|--4------4--------|

--2--2------2----|--4------4----3s--|--2--2------2----|--4------4----3s--|

--2--2------2----|--2------2----3s--|--2--2------2----|--2------2----3s--|

--2--2------2----|--------------3s--|--2--2------2----|--------------3s--|





E Q. Q Q. Q E E Q. Q Q. Q E

-----------------|------------------|-----------------|------------------|

-----------------|------------------|-----------------|------------------|

-----------------|--2------2--------|-----------------|--2------2--------|

--2--2------2----|--2------2----3s--|--2--2------2----|--2------2----3s--|

--2--2------2----|--0------0----3s--|--2--2------2----|--0------0----3s--|

--2--2------2----|--------------3s--|--2--2------2----|--------------3s--|





E Q. Q

-----------------|

-----------------|

-----------------|

--2--2------2----|

--2--2------2----|

--2--2------2----|





|--------------------|

|-----------0--------|

|--------2-----2-----|

|-----2-----------2--|

|--0-----------------|

|--------------------|



E E E E E E E E E E E E E E E E E E --------------------|--------------------|--|

-----------0--------|-----------1--------|-----------1----------------------------------------------------|

--------2-----2-----|--------2-----2-----|--------2-----2-------------------------------------------------|

-----2-----------2--|-----2-----------2--|-----2-----------2----------------------------------------------|

--0-----------------|--0-----------------|--0-------------------------------------------------------------|

--------------------|--------------------|----------------------------------------------------------------|





E E E E E E E E E E E E E E E E E E

--------------------|--------------------|--------------------|

-----------0--------|-----------0--------|-----------1--------|

--------2-----2-----|--------2-----2-----|--------2-----2-----|

-----2-----------2--|-----2-----------2--|-----2-----------2--|

--0-----------------|--0-----------------|--0-----------------|

--------------------|--------------------|--------------------|





E E E E E E E E E E E E E E E E E E

--------------------|--------------------|--------------------|

-----------1--------|-----------1--------|--3--------1--------|

--------2-----2-----|--------2-----2-----|-----2--------2-----|

-----2-----------2--|-----2-----------2--|--------2--------2--|

--0-----------------|--0-----------------|--------------------|

--------------------|--------------------|--------------------|





E E E E E E E E E E E E E E E E E E

--------------------|--------------------|--------------------|

--1-----1--3-----3--|--1-----1--0-----0--|-----------0--------|

-----2--------2-----|-----2--------2-----|--------2-----2-----|

--------------------|--------------------|-----2-----------2--|

--------------------|--------------------|--0-----------------|

--------------------|--------------------|--------------------|





E E E E E E E E E E E E E E E E E E

--------------------|--------------------|--------------------|

-----------0--------|-----------1--------|-----------1--------|

--------2-----2-----|--------2-----2-----|--------2-----2-----|

-----2-----------2--|-----2-----------2--|-----2-----------2--|

--0-----------------|--0-----------------|--0-----------------|

--------------------|--------------------|--------------------|





E E E E E E E E E E E E E E E E E E

--------------------|--------------------|--------------------|

-----------0--------|-----------0--------|-----------1--------|

--------2-----2-----|--------2-----2-----|--------2-----2-----|

-----2-----------2--|-----2-----------2--|-----2-----------2--|

--0-----------------|--0-----------------|--0-----------------|

--------------------|--------------------|--------------------|





E E E E E E E E E E E E E E E E E E

--------------------|--------------------|--------------------|

-----------1--------|-----------1--------|--3--------1--------|

--------2-----2-----|--------2-----2-----|-----2--------2-----|

-----2-----------2--|-----2-----------2--|--------2--------2--|

--0-----------------|--0-----------------|--------------------|

--------------------|--------------------|--------------------|





E E E E E E E E E E E E E E E E E E

--------------------|--------------------|--------------------|

--1-----1--3-----3--|--1-----1--0-----0--|-----------0--------|

-----2--------2-----|-----2--------2-----|--------2-----2-----|

--------------------|--------------------|-----2-----------2--|

--------------------|--------------------|--0-----------------|

--------------------|--------------------|--------------------|





E E E E E E E E E E E E E E E E E E

--------------------|--------------------|--------------------|

-----------0--------|-----------1--------|-----------1--------|

--------2-----2-----|--------2-----2-----|--------2-----2-----|

-----2-----------2--|-----2-----------2--|-----2-----------2--|

--0-----------------|--0-----------------|--0-----------------|

--------------------|--------------------|--------------------|





Q. Q E E Q. Q Q. Q E

|------------------|-----------------|------------------|

|------------------|-----------------|------------------|

|--2------2--------|-----------------|--2------2--------|

|--2------2----3s--|--2--2------2----|--2------2----3s--|

|--0------0----3s--|--2--2------2----|--0------0----3s--|

|--------------3s--|--2--2------2----|--------------3s--|





E Q. Q Q. Q E E Q. Q Q. Q E

-----------------|------------------|-----------------|------------------|

-----------------|------------------|-----------------|------------------|

-----------------|--2------2--------|-----------------|--2------2--------|

--2--2------2----|--2------2----3s--|--2--2------2----|--2------2----3s--|

--2--2------2----|--0------0----3s--|--2--2------2----|--0------0----3s--|

--2--2------2----|--------------3s--|--2--2------2----|--------------3s--|





E Q. Q Q. Q E E Q. Q Q. Q E

-----------------|------------------|-----------------|------------------|

-----------------|------------------|-----------------|------------------|

-----------------|--4------4--------|-----------------|--4------4--------|

--2--2------2----|--4------4----3s--|--2--2------2----|--4------4----3s--|

--2--2------2----|--2------2----3s--|--2--2------2----|--2------2----3s--|

--2--2------2----|--------------3s--|--2--2------2----|--------------3s--|





E Q. Q Q. Q E E Q. Q Q. Q E

-----------------|------------------|-----------------|------------------|

-----------------|------------------|-----------------|------------------|

-----------------|--2------2--------|-----------------|--2------2--------|

--2--2------2----|--2------2----3s--|--2--2------2----|--2------2----3s--|

--2--2------2----|--0------0----3s--|--2--2------2----|--0------0----3s--|

--2--2------2----|--------------3s--|--2--2------2----|--------------3s--|





E Q. Q

-----------------|

-----------------|

-----------------|

--2--2------2----|

--2--2------2----|

--2--2------2----|





E E E S S E S S E S S E S S Q

|-----------------------|---------------------|

|-----------------------|---------------------|

|-----------------------|---------------------|

|--0s--1--1--2---1--2---|--1--2---1--2-1-0----|

|--0s--1--1--2---1--2---|--1--2---1--2-1-0----|

|--0s--1--1--2---1--2---|--1--2---1--2-1-0----|





E E E S S E S S E S S E S S Q E E E S S E S S

-----------------------|---------------------|-----------------------|

-----------------------|---------------------|-----------------------|

-----------------------|---------------------|-----------------------|

--0s--1--1--2---1--2---|--1--2---1--2-1-0----|--0s--1--1--2---1--2---|

--0s--1--1--2---1--2---|--1--2---1--2-1-0----|--0s--1--1--2---1--2---|

--0s--1--1--2---1--2---|--1--2---1--2-1-0----|--0s--1--1--2---1--2---|





E S S E S S Q E E E S S E S S E S S E S S Q

---------------------|-----------------------|---------------------|

---------------------|-----------------------|---------------------|

---------------------|-----------------------|---------------------|

--1--2---1--2-1-0----|--0s--1--1--2---1--2---|--1--2---1--2-1-0----|

--1--2---1--2-1-0----|--0s--1--1--2---1--2---|--1--2---1--2-1-0----|

--1--2---1--2-1-0----|--0s--1--1--2---1--2---|--1--2---1--2-1-0----|





E E E S S E S S E S S E S S Q E E E S S E S S

-----------------------|---------------------|-----------------------|

-----------------------|---------------------|-----------------------|

-----------------------|---------------------|-----------------------|

--0s--1--1--2---1--2---|--1--2---1--2-1-0----|--0s--1--1--2---1--2---|

--0s--1--1--2---1--2---|--1--2---1--2-1-0----|--0s--1--1--2---1--2---|

--0s--1--1--2---1--2---|--1--2---1--2-1-0----|--0s--1--1--2---1--2---|





E S S E S S Q E E E S S E S S E S S E S S Q

---------------------|-----------------------|---------------------|

---------------------|-----------------------|---------------------|

---------------------|-----------------------|---------------------|

--1--2---1--2-1-0----|--0s--1--1--2---1--2---|--1--2---1--2-1-0----|

--1--2---1--2-1-0----|--0s--1--1--2---1--2---|--1--2---1--2-1-0----|

--1--2---1--2-1-0----|--0s--1--1--2---1--2---|--1--2---1--2-1-0----|





E E E S S E S S E S S E S S Q

-----------------------|---------------------|

-----------------------|---------------------|

-----------------------|---------------------|

--0s--1--1--2---1--2---|--1--2---1--2-1-0----|

--0s--1--1--2---1--2---|--1--2---1--2-1-0----|

--0s--1--1--2---1--2---|--1--2---1--2-1-0----|





Q. Q E E Q. Q Q. Q E

|------------------|-----------------|------------------|

|------------------|-----------------|------------------|

|--2------2--------|-----------------|--2------2--------|

|--2------2----3s--|--2--2------2----|--2------2----3s--|

|--0------0----3s--|--2--2------2----|--0------0----3s--|

|--------------3s--|--2--2------2----|--------------3s--|





E Q. Q Q. Q E E Q. Q Q. Q E

-----------------|------------------|-----------------|------------------|

-----------------|------------------|-----------------|------------------|

-----------------|--2------2--------|-----------------|--2------2--------|

--2--2------2----|--2------2----3s--|--2--2------2----|--2------2----3s--|

--2--2------2----|--0------0----3s--|--2--2------2----|--0------0----3s--|

--2--2------2----|--------------3s--|--2--2------2----|--------------3s--|





E Q. Q Q. Q E E Q. Q Q. Q E

-----------------|------------------|-----------------|------------------|

-----------------|------------------|-----------------|------------------|

-----------------|--4------4--------|-----------------|--4------4--------|

--2--2------2----|--4------4----3s--|--2--2------2----|--4------4----3s--|

--2--2------2----|--2------2----3s--|--2--2------2----|--2------2----3s--|

--2--2------2----|--------------3s--|--2--2------2----|--------------3s--|





E Q. Q Q. Q E E Q. Q Q. Q E

-----------------|------------------|-----------------|------------------|

-----------------|------------------|-----------------|------------------|

-----------------|--2------2--------|-----------------|--2------2--------|

--2--2------2----|--2------2----3s--|--2--2------2----|--2------2----3s--|

--2--2------2----|--0------0----3s--|--2--2------2----|--0------0----3s--|

--2--2------2----|--------------3s--|--2--2------2----|--------------3s--|





E Q. Q

-----------------|

-----------------|

-----------------|

--2--2------2----|

--2--2------2----|

--2--2------2----|



E E E E E E

|--------------------|

|-----------0--------|

|--------2-----2-----|

|-----2-----------2--|

|--0-----------------|

|--------------------|





E E E E E E E E E E E E E E E E E E

--------------------|--------------------|--------------------|

-----------0--------|-----------1--------|-----------1--------|

--------2-----2-----|--------2-----2-----|--------2-----2-----|

-----2-----------2--|-----2-----------2--|-----2-----------2--|

--0-----------------|--0-----------------|--0-----------------|

--------------------|--------------------|--------------------|





E E E E E E E E E E E E E E E E E E

--------------------|--------------------|--------------------|

-----------0--------|-----------0--------|-----------1--------|

--------2-----2-----|--------2-----2-----|--------2-----2-----|

-----2-----------2--|-----2-----------2--|-----2-----------2--|

--0-----------------|--0-----------------|--0-----------------|

--------------------|--------------------|--------------------|





E E E E E E E E E E E E E E E E E E

--------------------|--------------------|--------------------|

-----------1--------|-----------1--------|--3--------1--------|

--------2-----2-----|--------2-----2-----|-----2--------2-----|

-----2-----------2--|-----2-----------2--|--------2--------2--|

--0-----------------|--0-----------------|--------------------|

--------------------|--------------------|--------------------|





E E E E E E E E E E E E E E E E E E

--------------------|--------------------|--------------------|

--1-----1--3-----3--|--1-----1--0-----0--|-----------0--------|

-----2--------2-----|-----2--------2-----|--------2-----2-----|

--------------------|--------------------|-----2-----------2--|

--------------------|--------------------|--0-----------------|

--------------------|--------------------|--------------------|





E E E E E E E E E E E E E E E E E E

--------------------|--------------------|--------------------|

-----------0--------|-----------1--------|-----------1--------|

--------2-----2-----|--------2-----2-----|--------2-----2-----|

-----2-----------2--|-----2-----------2--|-----2-----------2--|

--0-----------------|--0-----------------|--0-----------------|

--------------------|--------------------|--------------------|





E E E E E E E E E E E E E E E E E E

--------------------|--------------------|--------------------|

-----------0--------|-----------0--------|-----------1--------|

--------2-----2-----|--------2-----2-----|--------2-----2-----|

-----2-----------2--|-----2-----------2--|-----2-----------2--|

--0-----------------|--0-----------------|--0-----------------|

--------------------|--------------------|--------------------|





E E E E E E H Q H Q

--------------------|----------------|----------------||

-----------1--------|--1--------L----|--L--------L----||

--------2-----2-----|--2--------L----|--L--------L----||

-----2-----------2--|--2--------L----|--L--------L----||

--0-----------------|----------------|----------------||

--------------------|----------------|----------------||





Duration Legend

---------------

W - whole

H - half

Q - quarter

E - 8th

S - 16th

T - 32nd

X - 64th

. - note dotted

|-n-| - n-tuplets





Tablature Legend

----------------

L - tied note

x - dead note

g - grace note

(n) - ghost note

> - accentuded note

NH - natural harmonic

AH - artificial harmonic

TH - tapped harmonic

SH - semi harmonic

PH - pitch harmonic

h - hammer on

p - pull off

b - bend

br - bendRelease

pb - preBend

pbr - preBendRelease

brb - bendReleaseBend


/ - tremolo bar dip


- tremolo bar dive

-/n - tremolo bar Release up

/n\ - tremolo bar inverted dip

/n - tremolo bar return

-
- tremolo bar Release down

S - shift slide

s - legato slide

/ - slide into from below or out of upwards

\ - slide into from above or out of downwards

~ - vibrato

W - wide vibrato

tr - trill

TP - tremolo picking

T - tapping

S - slap

P - pop

Added by tabs-database.com and our distinguished partners
Get this song at amazon.com      Ebay     Ringtones Ringtones  


Learn to play: Songwriting, Piano, Harmonica, Guitar

Related Misc Unsigned Bands Tabs

Justice - Tonick tabs
Vertical Leap - Transparency tabs
Bankrupt - Five Kinds Of Crazy tabs
Blackdot - Lines Of Reflection tabs
Guard Rails - Sleep tabs
Thomas Storli - Final Step tabs
4th Degree Burn - Need tabs
Explosion Of The Insane - The Beginning tabs
Aftertears - Walk Away tabs
Eargasm - Conforming To Non Conformity tabs
Setu Firestorm - The Fade tabs
Punk Weasels - Graffiti tabs
Nymph - Problem Country tabs
The Squatters - Never Enough tabs
Social Cancer- Cemetary Waltz tabs
The Sick Men Of Europe - Mercutio I Am For You tabs
Matteo Negrin - Lacrime Di Giulietta tabs
Crash Code - Hypnosys tabs
Cumulus - Lifeless tabs
Vaginal Incest - Grindcore tabs


Guitar Tabs









All tabs are property and copyright of their owners. All tabs provided for educational purposes only. Privacy Policy, DMCA