Misc Unsigned Bands

Too Late The Hero - Human Tragedy Tabs



More from Misc Unsigned Bands

Misc Unsigned Bands Tabs
Misc Unsigned Bands Chords
Misc Unsigned Bands Bass



webmaster at tabs-database.com.com

1st tab ever........09226869929

Intro

---------------------------|

---------------------------|

---------------------------|

---------------------------|

--4-5-7--4---2x------------|

--2-3-5--2-----------------|



---------------------------|

---------------------------|

------7--------------------|

--9-5-7-7------------------|

--9-5-5-7--2x--------------|

--7-3---5------------------|



---------------------------|

---------------------------|

--4-4-4-4-4-4-4-4----------|

--x-x-x-x-x-x-x-x----------|

--2-2-2-2-2-2-2-2----------|

---------------------------|



---------------------------|

---------------------------|

-----7-7-------------------|

--9--7-7---7-xxxxxx-5-7-9--|

--9--5-5---7-xxxxxx-5-7-9--|

--7--------5-xxxxxx-3-5-7--|Added by tabs-database.com and our distinguished partners
Get this song at amazon.com      Ebay     Ringtones Ringtones  


Learn to play: Songwriting, Piano, Harmonica, Guitar

Related Misc Unsigned Bands Tabs

A Rainy Tuesday - Anti-emo Anthem tabs
Ballroom - Girl On The Floor tabs
B-randon - Random-ness tabs
No Boundariez - May 13th tabs
Breathe The Plague - Intro Song tabs
Whisky Rebellion - Bitch Slap To Life Bass tabs
Inverse Universe - Locked Inside tabs
Blue Ridge Brothers - Let It Go tabs
Nhia - Powaa tabs
The Isle Of Wight - House Cat tabs
Bullets Goes Better - A Mausoleums Minuet tabs
One Day Behind - Picture Perfect tabs
Martin Garrix - Animals tabs
The Searchlight Is Safety - A Light In The Calm tabs
Summer Birds - Sweet Passing Days tabs
Duktil - Sabes tabs
Some Kind Of Hero - Midnight Calling tabs
Diexis - Caught In Bass tabs
Dusty Brown Room-the Craigs tabs
Last Chance Lost - Back To Where We Started tabs


Guitar Tabs









All tabs are property and copyright of their owners. All tabs provided for educational purposes only. Privacy Policy, DMCA