Misc Unsigned Bands

The Oxygen Addicts - Stratus Bass Tabs



More from Misc Unsigned Bands

Misc Unsigned Bands Tabs
Misc Unsigned Bands Chords
Misc Unsigned Bands Bass



-----------------------------------------------------------------------------

STRATUS - The Oxygen Addicts

-----------------------------------------------------------------------------



Tabbed By : Kid Allen

e-mail: webmaster at tabs-database.com.com



Tuning:standard



Verse

G|-----------------------------------|

D|-----------------------------------|

A|------7-77----10-7-5-7-------------|

E|--5-5------3-----------------------|



Chorus

G|-----------------------------------|

D|-----------------------------------|

A|------5-5-3-3-3-5-----5-5-3-3-5-5-3|

E|--5-5-------------5-5--------------|







| / slide up

| \ slide down

| h hammer-on

| p pull-off

| ~ vibrato

| + harmonic

| x Mute note

=============================================================================Added by tabs-database.com and our distinguished partners
Get this song at amazon.com      Ebay     Ringtones Ringtones  


Learn to play: Songwriting, Piano, Harmonica, Guitar

Related Misc Unsigned Bands Tabs

Betontod - Intregration tabs
Apolitical - Obscene Gestures tabs
Morelli Reed - Aa Flyer tabs
September Solstice - Stars tabs
Gifted - Kill God tabs
Neither One - Nada One tabs
Idyetz - Terror tabs
Eargasm - Conforming To Non Conformity tabs
Told True - Fight To Survive tabs
Intrakit - Save Me tabs
Lost Lies - Heaven tabs
Strata - When Its All Burnin tabs
Crumpet Mode - Sexy Terrorist tabs
The Kinky Kangaroos - The Chinese Song tabs
Blacklite - Ummmm tabs
The Courteeners - Acrylic tabs
Verbatym - Magna Carta tabs
Lost In Forever - Go With The Flow tabs
The Envirocides - Dirt Man tabs
Batteries Not Included - Still Sleeping With The Lights On tabs


Guitar Tabs









All tabs are property and copyright of their owners. All tabs provided for educational purposes only. Privacy Policy, DMCA