Misc Unsigned Bands

The Harcourt Arms - Bang Your Head On The Desk Tabs



More from Misc Unsigned Bands

Misc Unsigned Bands Tabs
Misc Unsigned Bands Chords
Misc Unsigned Bands Bass



Bang Your Head On The Desk - The Harcourt Arms



The Harcourt Arms are the best band of all time...they are a melbourne based rock trio.



Jamie - Intraments

Steve - Singer

Drum Machine - Machiney Things



Hello, this is carl... this is my first tab, hope you like it!!



The song starts off on an A open chord, try to barre the D, G, and B strings with your

finger



|-----------------------------------|

|--2--------------------------------|

|--2--------------------------------|

|--2--------------------------------|

|-----------------------------------|

|-----------------------------------|



Then with your middle finger, fret G.



|-----------------------------------|

|--2--------------------------------|

|--2--------------------------------|

|--2--------------------------------|

|--x--------------------------------|

|--3--------------------------------|



So the intro goes...



|-----------------------------------|

|--2--2--2--2--2--2--2~-------------|

|--2--2--2--2--2--2--2~-------------| Added by tabs-database.com and our distinguished partners
Get this song at amazon.com      Ebay     Ringtones Ringtones  


Learn to play: Songwriting, Piano, Harmonica, Guitar

Related Misc Unsigned Bands Tabs

Good Night And Good Luck - The Road To Nowhere tabs
616 - Wasting Time tabs
Half Price - Suicide Bomber tabs
The Hoffs - Bread And Milk Bass tabs
Skinned Youth - Tanden Partner tabs
Where 2 Next - Dont Quit On Me Now tabs
Cool Kids Of Death - Na Wszystkie Cztery Strony tabs
Harlots - Alien tabs
Discord - Sexy Needle tabs
Always Rushing By - Whiplash From Photographs tabs
Blackdot - Enigma tabs
Cunt Wipes - Pizza Fart Bass tabs
Nurl - Pink Elephants tabs
Aureal - Renacer tabs
One Day Behind - Picture Perfect tabs
Diablo - Tristram tabs
Noise Method - Nostalgia Bass tabs
Quick Kill Lucy - Your Dads Dead tabs
Checkered Stripe - Untitled tabs
The Ramblers - Down The Pub tabs


Guitar Tabs









All tabs are property and copyright of their owners. All tabs provided for educational purposes only. Privacy Policy, DMCA