Misc Unsigned Bands

Syd Joseph And The Muslim Orchistra - Mahklab Alraheem Tabs



More from Misc Unsigned Bands

Misc Unsigned Bands Tabs
Misc Unsigned Bands Chords
Misc Unsigned Bands Bass



Gtr I (E A D G B E) - 'Dylan Mooney'

Gtr II (E A D G B E) - 'Ziad Watfa'





Intro

Q=176

N.C. Bb5N.C. Bb5 N.C. Bb5N.C. G5

4/4

Gtrs I, II

S S S S Q S S S S Q S S S S Q S S S S Q

||------------------------|-----------------------||

||o-----------------------|----------------------o||

||------------------------|-----------------------||

||------------------------|-----------------------||

||o-7-5-----8--7-5-----8--|-7-5-----8--7-5-----5-o||

||------7-5-6------7-5-6--|-----7-5-6------7-5-3--||





Theme 1

Q=132

E5 N.C.

W +W 14x +H. Q

|----------||--------------||--------------|

|----------||o------------o||--------------|

|----------||--------------||----------2/--|

|-2--------||--(2)---------||-(2)----------|

|-2--------||o-(2)--------o||-(2)----------|

|-0--------||--(0)---------||-(0)----------|





$

Gtr I

Q. Q. Q Q. Q. Q Q. Q. Q Q. Q. Q

|--------------|----------------|--------------|---------------|

|--------------|----------------|--------------|------------8--|

|-9----8-------|----------------|-9----8-------|---------------|

|-----------9--|----------------|-----------9--|---------------|

|--------------|-10----9--------|--------------|-10----9-------|

|--------------|------------11--|--------------|---------------|





Gtr I

Q. Q. Q Q. Q. Q Q. Q. Q Q. Q. Q

|--------------|----------------|--------------|----------------|

|--------------|----------------|--------------|-------------8--|

|-9----8-------|----------------|-9----8-------|----------------|

|-----------9--|----------------|-----------9--|----------------|

|--------------|-10----9--------|--------------|-10----9--------|

|--------------|------------11--|--------------|----------------|

|

| Gtr II

| ~~ ~~~~~~~~ ~~ ~~

| Q. Q. Q Q. Q. Q Q. Q. Q Q. Q. Q

|-8----7-------|----------------|-8----7-------|------------11--|

|-----------7--|----------------|-----------7--|----------------|

|--------------|--9----8--------|--------------|--9----8--------|

|--------------|-------------9--|--------------|----------------|

|--------------|----------------|--------------|----------------|

|--------------|----------------|--------------|----------------|





Em F#m7+5

Gtr I

PM--------| PM-----------------|

E E E E E E E E E E E E E E E E

|------------------|-------------------------|

|------------------|-------------------------|

|--------------0---|-------------------11----|

|------5-----8---8-|---------9------10----10-|

|----7-----7-------|------10-----12----------|

|--0-----0---------|---0-------0-------------|

|

| Gtr II

| ~~~~~~~~~~~~~~~~~~~~~~~

| W +W

|-12---------------|-(12)--------------------|

|------------------|-------------------------|

|------------------|-------------------------|

|------------------|-------------------------|

|------------------|-------------------------|

|------------------|-------------------------|





Em F#m7+5

PM--------| PM--------------| ~~

E E E E E E E E E E E E E E Q

|-----------------|--------------------|

|-----------------|--------------------|

|-------------0---|----------------11--|

|-----5-----8---8-|------9------10-----|

|---7-----7-------|---10-----12--------|

|-0-----0---------|-0------0-----------|

|

| W W

|-----------------|--------------------|

|-----------------|--------------------|

|-----------------|--------------------|

|-----------------|--------------------|

|-----------------|--------------------|

|-----------------|--------------------|





Em F#m7+5

PM--------| PM--------------|

E E E E E E E E E E E E E E E E

|-----------------|----------------------|

|-----------------|----------------------|

|-------------0---|----------------11----|

|-----5-----8---8-|------9------10----10-|

|---7-----7-------|---10-----12----------|

|-0-----0---------|-0------0-------------|





1.,2.,3.

To Coda

G Gm N.C. E5D5E5F#G5F#G5A5

PM------------------------------|

E E E E E E E E E E E E E E E E 4x

||------------------|------------------||

||o-----------------|-----------------o||

||------------------|------------------||

||------5-----5-----|-2-0-2-4-5-4-5-7--||

||o---5-----5-------|-2-0-2-4-5-4-5-7-o||

||--7-----6-----3-2-|-0----------------||





4.

D.S. al Coda

E5 N.C.

W +W 7x +H. Q

|----------||--------------||--------------||

|----------||o------------o||--------------||

|----------||--------------||----------2/--||

|-2--------||--(2)---------||-(2)----------||

|-2--------||o-(2)--------o||-(2)----------||

|-0--------||--(0)---------||-(0)----------||





Verse

Q=162

&

E5 F5

Gtr I

PM--------------------------|

W +H E E S S E +Q E E E E E E E E E E E E S S E

|----------|------------------|------------------|---------------------|

|----------|------------------|------------------|---------------------|

|----------|------------------|------------------|---------------------|

|-2--------|-(2)----2-2-----3-|-(3)--------------|-----------------2---|

|-2--------|-(2)----2-2-----3-|-(3)--3-3-3-3-3-3-|-3-3-3-3---2-----2---|

|-0--------|-(0)----0---0-0-1-|-(1)--1-1-1-1-1-1-|-1-1-1-1-0---0-0-0---|





B5 E5 N.C. F5

PM| PM------| ~~ PM--| PM----------------------------

+Q E E Q E E S S Q. E E E E +Q E E E E E E

|-----------------|-------------------|------------------------------------|

|-----------------|-------------------|------------------------------------|

|----------4------|-------------------|------------------------------------|

|-(2)------4------|-----------------3-|--(3)-------------------------------|

|-(2)------2------|------------2----3-|--(3)---3-----3-----3-----3----3----|

|-(0)--0-0----0-0-|-0-0-3----0---3--1-|--(1)---1-----1-----1-----1----1----|

Gtr II ~~~~~~~~~

W H Q E E +Q S S S S S S S S S S S S

|-----------------|-------------------|---------------------------------|

|-----------------|-------------------|------------------------------------|

|-----------------|-------------------|------------------------------------|

|-----------------|-------------------|----------------------------1414h15p|

|-----------------|-------------------|-------------12h14-12-12-14S15------|

|-----------------|----------------13-|-(13)--12h13------------------------|





N.C. E5

----------------------------------------------|

E E E E E E S S E

|-------------------------------------------------------------|

|-------------------------------------------------------------|

|-------------------------------------------------------------|

|----------------------------------------------------2--------|

|--3-----3-----3-----3-------------2-----------------2--------|

|--1-----1-----1-----1-----0----------------0--0-----0--------|

|

| |------5------| |--3--|

| S S S S S S S S S S S S S S. T S S S

|------------------------------------------19----12h17p12-----|

|-------------------------17---------17h18----------------17p=|

|-------14h16-14-14-16h17----17-17----------------------------|

|-14h15-------------------------------------------------------|

|-------------------------------------------------------------|

|-------------------------------------------------------------|





B5 E5 N.C. F5

PM------| PM--------------| ~~ PM---|

+Q E E Q E E S S Q. E E E E

|-----------------------------------------------------|--------------------|

|-----------------------------------------------------|--------------------|

|------------------------------4----------------------|--------------------|

|-(2)--------------------------4----------------------|------------------3-|

|-(2)--------------------------2----------------------|---------------2--3-|

|-(0)-----------0--------0-----------------0-----0----|--0-0-3-----0-----1-|

|

~~

|-----6-----|

| S S S S S S S E S S S S S S S S S H E E E E

|-----17-------15-------------------------------------|--------------------|

|-12-----12h15----15p12----12h15p12----12-------------|--------------------|

|-----------------------14----------14----14-12----14-|-12-----------------|

|-----------------------------------------------14----|-----------14-12----|

|-----------------------------------------------------|-----------------12-|

|-----------------------------------------------------|--------------------|





N.C. E5

PM---------------------------|

+Q E E E E E E E E E E E E S S E

|---------------------|-------------------|

|---------------------|-------------------|

|---------------------|-------------------|

|--(3)----------------|-----------------2-|

|--(3)---3--3-3-3-3-3-|-3-3-3-3---2-----2-|

|--(1)---1--1-1-1-1-1-|-1-1-1-1-0---0-0-0-|

|

| +E E Q H W

|---------------------|-------------------|

|---------------------|-------------------|

|---------------------|-------------------|

|---------------------|-------------------|

|-(12)-8-8\-----------|-------------------|

|---------------------|-------------------|





B5 E5 N.C. F5

PM| PM------| ~~ PM--|

+Q E E Q E E S S Q. E E E E

|-----------------|-----------------------|

|-----------------|-----------------------|

|----------4------|-----------------------|

|-(2)------4------|-----------------3-----|

|-(2)------2------|------------2----3-----|

|-(0)--0-0----0-0-|-0-0-3----0---3--1-----|

|

| W H Q E S S

|-----------------|-----------------------|

|-----------------|----------------10h13--|

|-----------------|-----------------------|

|-----------------|-----------------------|

|-----------------|-----------------------|

|-----------------|-----------------------|





N.C. E5

PM---------------------------------------------------------|

+Q E E E E E E E E E E E E S S E

|--------------------------------------------------------------------------|

|--------------------------------------------------------------------------|

|--------------------------------------------------------------------------|

|-(3)--------------------------------------------------------------------2-|

|-(3)-----------3-----3-----3-----3-----3-----3---3-----------2----------2-|

|-(1)-----------1-----1-----1-----1-----1-----11-----0-----------0-0--0-|

|

| |-----6-----|

| S S S S S S S S S S S S S S S S E S S S S S S S S S S S S S S E

|-13-----------------------------------------------------------------------|

|-----13p10----13p10-------10----------------------------------------------|

|-----------12-------12p10----12p10----12p10-------------------------------|

|-----------------------------------12-------12p10-----10------------------|

|------------------------------------------------12p10----10h12p10---------|

|------------------------------------------------------------------13---10s|





B5 E5 N.C. F5

PM| PM--------| ~~~~~ PM---|

+Q E E Q E E S S Q. E E E E

|----------------------|-------------------------------|

|----------------------|-------------------------------|

|----------4-----------|-------------------------------|

|-(2)------4-----------|----------------------------3--|

|-(2)------2-----------|----------------------2-----3--|

|-(0)--0-0---------0-0-|-0---0--3----------0-----3--1--|

|

| Q E E S S E E E E +E +Q +Q +E E

|----------------------|-------------------------------|

|----------------------|-------------------------------|

|----------------------|-7b9r==(7)b9-(7)--(7)---(7)----|

|------5-7-7b9r7-5-7-5-|-------------------------------|

|----------------------|-------------------------------|

|--5-------------------|-------------------------------|





N.C. E5 B5 E5 N.C. F5

PM--------------------------| PM| PM------| ~~ PM--|

+Q E E E E E E E E E E E E S S E +Q E E Q E E S S Q. E E E E

|------------------|-------------------|-----------------|-----------------|

|------------------|-------------------|-----------------|-----------------|

|------------------|-------------------|----------4------|-----------------|

|-(3)--------------|-----------------2-|-(2)------4------|-----------------|

|-(3)--3-3-3-3-3-3-|-3-3-3-3---2-----2-|-(2)------2------|------------2----|

|-(1)--1-1-1-1-1-1-|-1-1-1-1-0---0-0-0-|-(0)--0-0----0-0-|-0-0-3----0---3--|





N.C. E5

PM----------------------------------------------------------|

+Q E E E E E E E E E E E E S S E

|-------------------------------------------------|------------------------|

|-------------------------------------------------|------------------------|

|-------------------------------------------------|------------------------|

|-(3)---------------------------------------------|-------------------2----|

|-(3)----------3-----3-----3-----3-----3-----3----|-------2-----------2----|

|-(1)----------1-----1-----1-----1-----1-----1----|-0-----------0--0--0----|

|

| Gtr II

| S S S S S S S S S S S S S S S S S S S S S S S S S S S S S S S S

|-19p15-------15h17-------17p13-15----13----------|13----12----------------|

|-------17h18-------18p14----------17----17-15-13-|---15----13-15-13-12----|

|-------------------------------------------------|---------------------14-|

|-------------------------------------------------|------------------------|

|-------------------------------------------------|------------------------|

|-------------------------------------------------|------------------------|





B5 E5 N.C. F5

PM| PM-------------| ~~~ PM------|

+Q E E Q E E S S Q. E E E E

|---------------------|------------------------------------------------|

|---------------------|------------------------------------------------|

|----------4----------|------------------------------------------------|

|-(2)------4----------|------------------------------------------3-----|

|-(2)------2----------|--------------------------------2---------3-----|

|-(0)--0-0-------0--0-|---0-----0--3--------------0--------3-----1-----|

|

| ~~~ ~~~~~~

| Q. E E E E E +E S S Q +E +E S S E

|---------------------|------------------------------------------------|

|------------------14-|-(14)b16r==14--12-14b16--(14)-(14)--------------|

|-12-----9-9S12-12-14-|-(14)b16r==14--12-14b16--(14)-(14)-12----13b14==|

|---------------------|--------------------------------------14--------|

|---------------------|------------------------------------------------|

|---------------------|------------------------------------------------|





N.C. E5

PM-----------------------------------|

+Q E E E E E E E E E E E E S S E

|----------------------------|-------------------|

|----------------------------|-------------------|

|----------------------------|-------------------|

|--(3)-----------------------|-----------------2-|

|--(3)--3-3---3--------3-3-3-|-3-3-3-3---2-----2-|

|--(1)--1-1---1--------1-1-1-|-1-1-1-1-0---0-0-0-|

|

| ~~~~

| +H +S +E. Q W

|----------------------------|-------------------|

|----------------------------|-------------------|

|-(13)------(13)r(13)\-------|-------------------|

|----------------------------|-------------------|

|----------------------------|-------------------|

|----------------------------|-------------------|





B5 E5 N.C. F5

PM| PM------| ~~ PM--|

+Q E E Q E E S S Q. E E E E

|-----------------|----------------------|

|-----------------|----------------------|

|----------4------|----------------------|

|-(2)------4------|-----------------3----|

|-(2)------2------|------------2----3----|

|-(0)--0-0----0-0-|-0-0-3----0---3--1----|

|

| W H Q E S S

|-----------------|-------------------17-|

|-----------------|----------------18----|

|-----------------|----------------------|

|-----------------|----------------------|

|-----------------|----------------------|

|-----------------|----------------------|





PM-------------------------------------------------

+Q E E E E E E

|----------------------------------------------------------------------|

|----------------------------------------------------------------------|

|----------------------------------------------------------------------|

|-(3)------------------------------------------------------------------|

|-(3)----------------3--------3--------3-------3--------3-------3------|

|-(1)----------------1--------1--------1-------1--------1-------1------|

|

| |------6-------| |--3--| |------5------| |-----5------|

| S S S S S S T T S S S S S S S S S S S S S S

|-21p17----17-20p17----17S13-17-17-13-17-13-10---13-13-10-13-10---13-9-|

|-------18----------18-------------------------------------------------|

|----------------------------------------------------------------------|

|----------------------------------------------------------------------|

|----------------------------------------------------------------------|

|----------------------------------------------------------------------|





N.C.

7/8

---------------------------------|

E E E E E E S S

|------------------------------------|

|------------------------------------|

|------------------------------------|

|------------------------------------|

|--3------3-----3---3-------2--------|

|--1------1-----1---1---0-------1-1--|

|

| |----5-----|

| S S S S S S S S S S S S S S S

|-11-8-10---9-5-8-5h8p5---5----------|

|-----------------------8---6--------|

|-----------------------------7---4--|

|-------------------------------7----|

|------------------------------------|

|------------------------------------|





Interlude

Q=138

E5 F5 F#5 G5 E5 F5 F#5 G5

5/8

Gtr I

E E S S E E E E S S E E E E S S E E E E S S E E

|----------------|-------------|---------------|-----------------|

|----------------|-------------|---------------|-----------------|

|----------------|-------------|---------------|-----------------|

|--------2-2-----|-----4-4---5-|-----2-2-------|-------4-4----5--|

|------2-------3-|---4-------5-|---2--------3--|-----4--------5--|

|---0--------1---|-2-------3---|-0-------1-----|--2--------3-----|

|

| Gtr II

| Q Q E W H +E +H +E

|----------------|-------------|---------------|-----------------|

|----------------|-------------|---------------|-----------------|

|----------------|-------------|---------------|-----------------|

|-/15\-----------|-------------|-2---------(2)-|-(2)---------(2)-|

|----------------|-------------|-2---------(2)-|-(2)---------(2)-|

|----------------|-------------|-0---------(0)-|-(0)---------(0)-|





E5 F5 F#5 G5 E5 F5 F#5 G5

E E S S E E E E S S E E E E S S E E E E S S E E

|-------------|-------------|---------------|-----------------|

|-------------|-------------|---------------|-----------------|

|-------------|-------------|---------------|-----------------|

|-----2-2-----|-----4-4---5-|-----2-2-------|-------4-4----5--|

|---2-------3-|---4-------5-|---2--------3--|-----4--------5--|

|-0-------1---|-2-------3---|-0-------1-----|--2--------3-----|

|

| E E Q E W H +E +H +E

|-------------|-------------|---------------|-----------------|

|-------------|-------------|---------------|-----------------|

|-------------|-------------|---------------|-----------------|

|-2-----------|-------------|-2---------(2)-|-(2)---------(2)-|

|-2-----------|-------------|-2---------(2)-|-(2)---------(2)-|

|-0-----------|-------------|-0---------(0)-|-(0)---------(0)-|





E5 F5 F#5 G5

E E S S E E E E S S E E

|------------------------|----------------------------|

|------------------------|----------------------------|

|------------------------|----------------------------|

|--------------2-2-------|--------------4-4-----5-----|

|-----2----------------3-|-----4----------------5-----|

|--0----------------1----|--2----------------3--------|

|

| |--3--| |--3--|

| E S S S E E E E S S S E E E

|-15-14h15p14------14-15-|----------------------------|

|-------------17---------|-17-15h17p15------15-17pb19r|

|------------------------|-------------16-------------|

|------------------------|----------------------------|

|------------------------|----------------------------|

|------------------------|----------------------------|





E5 F5 F#5 G5

E E S S E E E E S S E E

|----------------------------|----------------------|

|----------------------------|----------------------|

|----------------------------|----------------------|

|------------2-2-------------|-----------4--4-----5-|

|---------2----------------3-|-------4------------5-|

|---0-------------1----------|--2--------------3----|

|

| |--3--|

| +Q E S S S E Q +E E E

|----------------------------|----------------------|

|-(17)b19---16---15h16p15----|----------------------|

|-------------------------17-|-14b16r==(14)---------|

|----------------------------|----------------17-16-|

|----------------------------|----------------------|

|----------------------------|----------------------|





E5 F5 F#5 G5

E E S S E E E E S S E E

|--------------------|---------------------------|

|--------------------|---------------------------|

|--------------------|---------------------------|

|--------2-2---------|--------4---4----------5---|

|-----2----------3---|---4-------------------5---|

|--0---------1-------|-2--------------3----------|

|

| ~~~

| |--3--| |-3--|

| E Q. +E E S S S S S S S S S S

|--------------------|---------------------------|

|--------------------|---8h9h11p9p==8h9h11p9p8h9-|

|--------------------|-9-------------------------|

|-17-14--------(14)\-|---------------------------|

|--------------------|---------------------------|

|--------------------|---------------------------|





E5 F5 F#5 G5

E E S S E E E E S S E E

|--------------------------------|---------------------|

|--------------------------------|---------------------|

|--------------------------------|---------------------|

|------------2--2----------------|----------4----4---5-|

|--------2-------------------3---|-------4-----------5-|

|-0----------------1-------------|--2--------------3---|

|

| ~~~~~

| |-3-|

| S S S S S S S X X T S S S S S E Q.

|-x--------8h9h11-13p9p8-12p11-9-|-------9-------------|

|-x-8h9h11-----------------------|-12-11---12b14-------|

|--------------------------------|---------------------|

|--------------------------------|---------------------|

|--------------------------------|---------------------|

|--------------------------------|---------------------|





E5 F5 F#5 G5

E E S S E E E E S S E E

|------------------------|--------------------------|

|------------------------|--------------------------|

|------------------------|--------------------------|

|--------2----2----------|----------------4-4-----5-|

|-----2----------------3-|------------4-----------5-|

|--0----------------1----|---2-----------------3----|

|

| |---3---|

| E E S S S E E +E +E E E E

|------------------------|--------------------------|

|----12-11h12p==11-------|--------------------------|

|------------------12-14-|-(14)pb15r(14)-11---12----|

|-14---------------------|-----------------------14-|

|------------------------|--------------------------|

|------------------------|--------------------------|





E5 F5 F#5 G5

E E S S E E E E S S E E

|------------------------|--------------------------|

|------------------------|--------------------------|

|------------------------|--------------------------|

|--------2----2----------|----------------4-4-----5-|

|-----2----------------3-|------------4-----------5-|

|--0----------------1----|---2-----------------3----|

|

| |---3---|

| E E S S S E E +E +E E E E

|------------------------|--------------------------|

|----15-14h15p==14-------|--------------------------|

|------------------16-17-|-(17)pb18r(17)-14---15----|

|-17---------------------|-----------------------17-|

|------------------------|--------------------------|

|------------------------|--------------------------|





E5 F5 F#5 G5

E E S S E E E E S S E E

|----------------------|-------------------------------|

|----------------------|-------------------------------|

|----------------------|-------------------------------|

|--------2--2----------|--------------4--4--------5----|

|-----2--------------3-|--------4-----------------5----|

|--0-----------1-------|--2-----------------3----------|

|

| E E S S S S E S S S S S S S S S S

|----19-15----------19-|-15-------15-17-------18p15----|

|----------19-17-------|----15-19-------19-15-------17-|

|-16-------------16----|-------------------------------|

|----------------------|-------------------------------|

|----------------------|-------------------------------|

|----------------------|-------------------------------|





E5 F5 F#5 G5

E E S S E E E E S S E E

|---------------------------------------|----------------------------------|

|---------------------------------------|---------------------------------|

|---------------------------------------|----------------------------------|

|-----------------2----2----------------|-----------------------4--4-----5-|

|--------2-------------------------3----|-----------4--------------------5-|

|--0-------------------------1----------|--2------------------------------|

|

| |--3--| |---3---| |--3--|

| S S S S S S S S S S S S S S S T T T T S S +E E

|------------------------15-18-19-18-15-|----15-19-15h19p15----15-1(19)-18-|

|-------------------17------------------|-19----------------19-------------|

|-18-15----15-18-18---------------------|----------------------------------|

|-------17------------------------------|----------------------------------|

|---------------------------------------|----------------------------------|

|---------------------------------------|----------------------------------|





Bridge

E5 F5 F#5 G5 E5 F5 F#5 G5

E E S S E E E E S S E E E E S S E E E E S S E E

|-------------------|------------------|--------------|------------------|

|-------------------|------------------|--------------|------------------|

|----------9-9------|------11-11----12-|-----9-9------|------11-11----12-|

|------9---------10-|---11----------12-|---9-------10-|---11----------12-|

|--7-----------8----|-9----------10----|-7-------8----|-9----------10----|

|-------------------|------------------|--------------|------------------|

|

| ~~

| E +E Q E W W W

|-19-(19)\----------|------------------|--------------|------------------|

|-------------------|------------------|--------------|------------------|

|-------------------|------------------|--------------|------------------|

|-------------------|------------------|--------------|------------------|

|-------------------|------------------|--------------|------------------|

|-------------------|------------------|--------------|------------------|





E5 Eb5 D5 Dadd6bCmaj7 B5 Bb5

3/8

Gtrs I, II

E E S S E E E E S S E E E E S S E E E S S E

|-------------|-------------|-------------|---------|

|-------------|-------------|-------------|---------|

|-----9-9---8-|-----7-7---6-|-----5-5---4-|---------|

|---9-9-9---8-|---7-7-7---6-|---5-5-5---4-|-3-----3-|

|-7-------6---|-5-------4---|-3-------2---|-1-1-1-1-|

|-------------|-------------|-------------|---------|





Verse 2

Q=152

B5A5G5F#5 E5 B5A5G5F#5 F5 B5A5G5F#5 F5F#5 B5A5G5F#5

2/4 4/4

PM----| PM----| PM----| PM----|

E E E E H E E E E H E E E E E Q. E E E E

|---------|--------------|--------------|----------------|

|---------|--------------|--------------|----------------|

|---------|--------------|--------------|----------------|

|---------|--------------|--------------|----------------|

|-9-7-5-4-|-2----9-7-5-4-|-3----9-7-5-4-|-3-4----9-7-5-4-|

|-7-5-3-2-|-0----7-5-3-2-|-1----7-5-3-2-|-1-2----7-5-3-2-|





G5 B5A5G5F#5 E5 B5A5G5F#5 F5 B5A5G5F#5 F5F#5 B5A5G5F#5

PM----| PM----| PM----| PM----|

H E E E E H E E E E H E E E E E Q. E E E E

|--------------|--------------|--------------|----------------|

|--------------|--------------|--------------|----------------|

|--------------|--------------|--------------|----------------|

|--------------|--------------|--------------|----------------|

|-5----9-7-5-4-|-2----9-7-5-4-|-3----9-7-5-4-|-3-4----9-7-5-4-|

|-3----7-5-3-2-|-0----7-5-3-2-|-1----7-5-3-2-|-1-2----7-5-3-2-|





Q=176

G5 B5A5G5F#5 E5 B5A5G5F#5 F5 B5A5G5F#5

5/4

PM----| PM| PM--------| PM| PM--------|

H E E E E E E E E E E E E E E E E E E E E E E E E

|--------------||----------------------|---------------------|

|--------------||o---------------------|---------------------|

|--------------||----------------------|---------------------|

|--------------||--2-----2-------------|-3-----3-------------|

|-5----9-7-5-4-||o-2-----2-----9-7-5-4-|-3-----3-----9-7-5-4-|

|-3----7-5-3-2-||--0-0-0-0-0-0-7-5-3-2-|-1-1-1-1-1-1-7-5-3-2-|





Q=176 1.,2.,3. 4.

F5F#5 B5A5G5F#5 G5 B5A5G5F#5 G5 B5A5G5F#5

5/4

PM PM--------| PM| PM--------| PM| PM--------|

E E E E E E E E E E E E E E E E E E E E 4x E E E E E E E E E E

|---------------------|----------------------||---------------------|

|---------------------|---------------------o||---------------------|

|---------------------|----------------------||---------------------|

|---------------------|-5-----5--------------||-5-----5-------------|

|-3S4---4-----9-7-5---|-5-----5-----9-7-5-4-o||-5-----5-----9-7-5-4-|

|-1S2-2-2-2-2-7-5-3-5-|-3-3-3-3-3-0-7-5-3-2--||-3-3-3-3-3-3-7-5-3-2-|





Verse 3

F5 N.C. E5

4/4

PM------------------------|

Q E E E E E E E E E E E E E E

|----------------|-----------------|

|----------------|-----------------|

|----------------|-----------------|

|-3--------------|---------------2-|

|-3--------------|-----------2---2-|

|-1--1-1-1-1-1-1-|-1-1-1-1-0---0-0-|





F5

PM----------------------------------|

+Q E S S E S S E S S E S S E S S E E E E

|------------------------|---------------------|

|------------------------|---------------------|

|------------------------|---------------------|

|-(2)--------------------|-------------------3-|

|-(2)--------------------|---------------2---3-|

|-(0)--0-0-0-0-0-0-0-0-0-|-0-0-0-0-0-0-0---0-1-|





N.C. E5

PM------------------------|

+Q E E E E E E E E E E E E E E

||-------------------|-----------------|

||o------------------|-----------------|

||-------------------|-----------------|

||--(3)--------------|---------------2-|

||o-(3)--------------|-----------2---2-|

||--(1)--1-1-1-1-1-1-|-1-1-1-1-0---0-0-|





F5

PM----------------------------------|

+Q E S S E S S E S S E S S E S S E E E E 3x

|------------------------|----------------------||

|------------------------|---------------------o||

|------------------------|----------------------||

|-(2)--------------------|-------------------3--||

|-(2)--------------------|---------------2---3-o||

|-(0)--0-0-0-0-0-0-0-0-0-|-0-0-0-0-0-0-0---0-1--||





N.C. E5

PM--|

+W +H E E E E

||-------------|----------------|

||o------------|----------------|

||-------------|----------------|

||--(3)--------|-(3)----------2-|

||o-(3)--------|-(3)------2---2-|

||--(1)--------|-(1)----0---0-0-|





F5

PM----------------------------------|

+Q E S S E S S E S S E S S E S S E E E E 3x

|------------------------|----------------------||

|------------------------|---------------------o||

|------------------------|----------------------||

|-(2)--------------------|-------------------3--||

|-(2)--------------------|---------------2---3-o||

|-(0)--0-0-0-0-0-0-0-0-0-|-0-0-0-0-0-0-0---0-1--||





Outro

N.C. E5 N.C.

Gtr II

PM----| PM----------------------------|

+W +H E E S S E S S S S S S S S S S S S S S S S

|------------|------------------||----------------------------------|

|------------|------------------||o---------------------------------|

|------------|----------------9-||----------------------------------|

|-(3)--------|-(3)------------9-||----------------------------------|

|-(3)--------|-(3)------2-x-x-7-||o---------------------------------|

|-(1)--------|-(1)----0---x-x-0-||--0-0-0-0-7-7-0-0-0-0-6-6-0-0-0-0-|





E5 D#B5Bb5

W

|--------------------------||-|

|-------------------------o||-|

|--------------------------||-|

|--------------------------||-|

|-------------------------o||-|

|--------------------------||-|

|

| Gtr II

| PM--------|

| S S S S S S E +E E E E

|--------------------------||-|

|-------------------------o||-|

|--------------------------||-|

|-------------9-(9)-8------||-|

|-------------7-(7)-6-9-8-o||-|

|-7-7-0-0-0-0---------7-6--||-|





N.C. E5 D#B5Bb5

Gtr I

E E E E E E Q E E E E +E E E E

||----------------------------------|--------------------------||

||o---------------------------------|-------------------------o||

||----------------------------------|--------------------------||

||----------------------------------|-------------9-(9)-8------||

||o-2-------9-----------8-----------|-9-----------7-(7)-6-9-8-o||

||--0-------7-----------6-----------|-7-------------------7-6--||

|

| PM------------------------------------------|

| S S S S S S S S S S S S S S S S S S S S S S E +E E E E

||----------------------------------|--------------------------||

||o---------------------------------|-------------------------o||

||----------------------------------|--------------------------||

||----------------------------------|-------------9-(9)-8------||

||o---------------------------------|-------------7-(7)-6-9-8-o||

||--0-0-0-0-7-7-0-0-0-0-6-6-0-0-0-0-|-7-7-0-0-0-0---------7-6--||





N.C.

T T T T T T

|----3----| |----3----| |----3----| |----3----|

E E E E E E E E E E E E

|-24p==12---22p==12---20p==12---22p==12---20p==12---19p==12---|

|-------------------------------------------------------------|

|-------------------------------------------------------------|

|-------------------------------------------------------------|

|-------------------------------------------------------------|

|-------------------------------------------------------------|

|

| PM----------------------------------------------------------

| S S S S S S S S S S S S S S S S

|-------------------------------------------------------------|

|-------------------------------------------------------------|

|-------------------------------------------------------------|

|-------------------------------------------------------------|

|-------------------------------------------------------------|

|--0-0----0----0--7-7----0----0--0-0----6----6--0-0----0----0-|





E5 D#5 B5 Bb5

T T T T T T

|----3----| |----3----| |---3----| |---3---|

E E E E E E E E E E E E

|-24p==12---22p==12---20p==12-22p=12---20p12-19p==12-|

|----------------------------------------------------|

|----------------------------------------------------|

|----------------------------------------------------|

|----------------------------------------------------|

|----------------------------------------------------|

|

|-------------------|

| S S S S S S E +E E E E

|----------------------------------------------------|

|----------------------------------------------------|

|----------------------------------------------------|

|------------------------9----(9)----8---------------|

|------------------------7----(7)----6-----9----8----|

|--7-7----0----0--0-0----------------------7----6----|





N.C.

T T T T T T

|----3----| |----3----| |----3----| |----3----|

E E E E E E E E E E E E

|-24p==12---22p==12---20p==12---22p==12---20p==12---19p==12---|

|-------------------------------------------------------------|

|-------------------------------------------------------------|

|-------------------------------------------------------------|

|-------------------------------------------------------------|

|-------------------------------------------------------------|

|

| PM----------------------------------------------------------

| S S S S S S S S S S S S S S S S

|-------------------------------------------------------------|

|-------------------------------------------------------------|

|-------------------------------------------------------------|

|-------------------------------------------------------------|

|-------------------------------------------------------------|

|--0-0----0----0--7-7----0----0--0-0----6----6--0-0----0----0-|





E5 D#5 B5 Bb5

T T T T T T

|----3----| |----3----| |---3----| |---3---|

E E E E E E E E E E E E

|-20p==12---19p==12---17p==12-19p=12---17p12-15p==12-|

|----------------------------------------------------|

|----------------------------------------------------|

|----------------------------------------------------|

|----------------------------------------------------|

|----------------------------------------------------|

|

|-------------------|

| S S S S S S E +E E E E

|----------------------------------------------------|

|----------------------------------------------------|

|----------------------------------------------------|

|------------------------9----(9)----8---------------|

|------------------------7----(7)----6-----9----8----|

|--7-7----0----0--0-0----------------------7----6----|





N.C.

T T T T T T

|----3----| |----3----| |----3----| |----3----|

E E E E E E E E E E E E

|-17p==12---15p==12---14p==12---15p==12---17p==12---19p==12---|

|-------------------------------------------------------------|

|-------------------------------------------------------------|

|-------------------------------------------------------------|

|-------------------------------------------------------------|

|-------------------------------------------------------------|

|

| PM----------------------------------------------------------

| S S S S S S S S S S S S S S S S

|-------------------------------------------------------------|

|-------------------------------------------------------------|

|-------------------------------------------------------------|

|-------------------------------------------------------------|

|-------------------------------------------------------------|

|--0-0----0----0--7-7----0----0--0-0----6----6--0-0----0----0-|





E5 D#5 B5 Bb5

T T T T T T

|----3----| |----3----| |---3----| |---3---|

E E E E E E E E E E E E

|-17p==12---15p==12---14p==12-15p=12---17p12-19p==12-|

|----------------------------------------------------|

|----------------------------------------------------|

|----------------------------------------------------|

|----------------------------------------------------|

|----------------------------------------------------|

|

|-------------------|

| S S S S S S E +E E E E

|----------------------------------------------------|

|----------------------------------------------------|

|----------------------------------------------------|

|------------------------9----(9)----8---------------|

|------------------------7----(7)----6-----9----8----|

|--7-7----0----0--0-0----------------------7----6----|





N.C.

T T T T T T

|----3----| |----3----| |----3----| |----3----|

E E E E E E E E E E E E

|-17p==12---15p==12---14p==12---15p==12---17p==12---19p==12---|

|-------------------------------------------------------------|

|-------------------------------------------------------------|

|-------------------------------------------------------------|

|-------------------------------------------------------------|

|-------------------------------------------------------------|

|

| PM----------------------------------------------------------

| S S S S S S S S S S S S S S S S

|-------------------------------------------------------------|

|-------------------------------------------------------------|

|-------------------------------------------------------------|

|-------------------------------------------------------------|

|-------------------------------------------------------------|

|--0-0----0----0--7-7----0----0--0-0----6----6--0-0----0----0-|





E5 D#5 B5 Bb5

T T T T T T

|----3----| |----3----| |---3----| |---3---|

E E E E E E E E E E E E

|-17p==12---19p==12---20p==12-19p=12---20p12-22p==12-|

|----------------------------------------------------|

|----------------------------------------------------|

|----------------------------------------------------|

|----------------------------------------------------|

|----------------------------------------------------|

|

|-------------------|

| S S S S S S E +E E E E

|----------------------------------------------------|

|----------------------------------------------------|

|----------------------------------------------------|

|------------------------9----(9)----8---------------|

|------------------------7----(7)----6-----9----8----|

|--7-7----0----0--0-0----------------------7----6----|





N.C. Bb5 N.C. Bb5 N.C. Bb5 N.C. G5

S S S S Q S S S S Q S S S S Q S S S S Q

|---------------------------------|---------------------------------|

|-17p15-----------17p15-----------|-17p15-----------17p15-----------|

|-------16-16-15--------16-16-15--|-------16-16-15--------16-16-15--|

|---------------------------------|---------------------------------|

|---------------------------------|---------------------------------|

|---------------------------------|---------------------------------|

|

| S S S S Q S S S S Q S S S S Q S S S S Q

|---------------------------------|---------------------------------|

|---------------------------------|---------------------------------|

|---------------------------------|---------------------------------|

|---------------------------------|---------------------------------|

|--7--5--------8---7--5--------8--|--7--5--------8---7--5--------5--|

|--------7--5--6---------7--5--6--|--------7--5--6---------7--5--3--|





N.C.

|----3----| |----3----|

S S S S S S S S E E E E E E

|-------------------------------------------------------|

|-------------------------------------------------------|

|-12h15p12----12-12-------------------------------------|

|----------14-------14-14-12---15---14---12---14---12---|

|-------------------------------------------------------|

|-------------------------------------------------------|

|

| PM----------------------------------------------------

| S S S S S S S S S S S S S S S S

|-------------------------------------------------------|

|-------------------------------------------------------|

|-------------------------------------------------------|

|-------------------------------------------------------|

|-------------------------------------------------------|

|--0--0--0--0--7--7--0--0--0-0----6----6--0-0----0----0-|





E5 D#5 B5 Bb5

|---3---|

S S S S S S S S S S S S E E E

|---------------------------------------------------|

|---------------------------------------------------|

|---------------------------------------------------|

|----12---------------------------------------------|

|-14----14p13p12-14p13p12h13p=12--------------------|

|--------------------------------15p14-12h15p==12---|

|

|----------------|

| S S S S S S E +E E E E

|---------------------------------------------------|

|---------------------------------------------------|

|---------------------------------------------------|

|--------------------9----(9)-----8-----------------|

|--------------------7----(7)-----6-----9----8------|

|--7--7--0--0--0--0---------------------7----6------|





N.C.

|---3---|

S S S S S S S S S S S S S S S S S

|------------------------------------------------------|

|------------------------------------------------------|

|------------------------------------------------------|

|-------------------------12-13---12----12-13-14-13-12-|

|-------13-------13-16-13------------13----------------|

|-12-15----12-15---------------------------------------|

|

| PM---------------------------------------------------

| S S S S S S S S S S S S S S S S

|------------------------------------------------------|

|------------------------------------------------------|

|------------------------------------------------------|

|------------------------------------------------------|

|------------------------------------------------------|

|--0--0--0--0--7--7--0--0--0----0-----6--6--0--0--0--0-|





E5 D#5 B5 Bb5

|--3--|

S S S S S S S S S S S S S S S S S

|-x--------------------10--------------------------|

|-x--------------11-12-----10-12S14-12-15p12-17p12-|

|---12-9-11-12-9-----------------------------------|

|--------------------------------------------------|

|--------------------------------------------------|

|--------------------------------------------------|

|

|--------------|

| S S S S S S E +E E E E

|--------------------------------------------------|

|--------------------------------------------------|

|--------------------------------------------------|

|-----------------9----(9)-----8-------------------|

|-----------------7----(7)-----6--------9-----8----|

|-7--7-0--0--0-0------------------------7-----6----|





N.C. Bb5 N.C. Bb5 N.C. Bb5 N.C. G5

S S S S Q S S S S Q S S S S Q S S S S Q

|---------------------------------|---------------------------------|

|-17p15-----------17p15-----------|-17p15-----------17p15-----------|

|-------16-16-15--------16-16-15--|-------16-16-15--------16-16-15--|

|---------------------------------|---------------------------------|

|---------------------------------|---------------------------------|

|---------------------------------|---------------------------------|

|

| S S S S Q S S S S Q S S S S Q S S S S Q

|---------------------------------|---------------------------------|

|---------------------------------|---------------------------------|

|---------------------------------|---------------------------------|

|---------------------------------|---------------------------------|

|--7--5--------8---7--5--------8--|--7--5--------8---7--5--------5--|

|--------7--5--6---------7--5--6--|--------7--5--6---------7--5--3--|





N.C.

S S S S S S S S S S S S S S S S

|------------12-12-12-12-------12-12-12-12-12-12-12-|

|-17-15----x-------------15b17----------------------|

|-------16------------------------------------------|

|---------------------------------------------------|

|---------------------------------------------------|

|---------------------------------------------------|

|

| PM------------------------------------------------

| S S S S S S S S S S S S S S S S

|---------------------------------------------------|

|---------------------------------------------------|

|---------------------------------------------------|

|---------------------------------------------------|

|---------------------------------------------------|

|--0--0--0-0--7--7--0--0--0-----0--6--6--0--0--0--0-|





E5 D#5 B5 Bb5

S S S S S S S S S S S S S S S S

|-------12-12-12-12-12-12-------12--12-------12-12-------12-12-|

|-15b17-------------------15b17--------15b17-------15b17-------|

|--------------------------------------------------------------|

|--------------------------------------------------------------|

|--------------------------------------------------------------|

|--------------------------------------------------------------|

|

|-------------------|

| S S S S S S E +E E E E

|--------------------------------------------------------------|

|--------------------------------------------------------------|

|--------------------------------------------------------------|

|-----------------------9-------(9)-----8----------------------|

|-----------------------7-------(7)-----6--------9--------8----|

|--7-----7--0--0--0--0---------------------------7--------6----|





N.C.

|---3---|

S S E S S S S S S S S S E S S

|-17-15-12---------12-------12-12-12------12-12---------|

|------------15b17----13-13----------15-----------15-15-|

|-------------------------------------------------------|

|-------------------------------------------------------|

|-------------------------------------------------------|

|-------------------------------------------------------|

|

| PM----------------------------------------------------

| S S S S S S S S S S S S S S S S

|-------------------------------------------------------|

|-------------------------------------------------------|

|-------------------------------------------------------|

|-------------------------------------------------------|

|-------------------------------------------------------|

|--0--0--0-0--7-----7--0--0--0--0--6----6-----0-0--0--0-|





E5 D#5 B5 Bb5

|------3-------|

S S S S S E +S S S S S S S S E

|---------------------------------------------------------------|

|-15-12----------------12---------------------------------------|

|-------14b16-14pb16------14b15r==(14)p12-15--14-12-14-12-14S16-|

|---------------------------------------------------------------|

|---------------------------------------------------------------|

|---------------------------------------------------------------|

|

|-------------------------------|

| S S S S S S E +E E E E

|---------------------------------------------------------------|

|---------------------------------------------------------------|

|---------------------------------------------------------------|

|-----------------------------------9-----(9)-----8-------------|

|-----------------------------------7-----(7)-----6-----9-----8-|

|--7--7--0-----------0-----0----0-----------------------7-----6-|





N.C. Bb5 N.C. Bb5 N.C. Bb5 N.C. G5

S S S S Q S S S S Q S S S S Q S S S S Q

|---------------------------------|---------------------------------|

|-17p15-----------17p15-----------|-17p15-----------17p15-----------|

|-------16-16-15--------16-16-15--|-------16-16-15--------16-16-15--|

|---------------------------------|---------------------------------|

|---------------------------------|---------------------------------|

|---------------------------------|---------------------------------|

|

| S S S S Q S S S S Q S S S S Q S S S S Q

|---------------------------------|---------------------------------|

|---------------------------------|---------------------------------|

|---------------------------------|---------------------------------|

|---------------------------------|---------------------------------|

|--7--5--------8---7--5--------8--|--7--5--------8---7--5--------5--|

|--------7--5--6---------7--5--6--|--------7--5--6---------7--5--3--|





N.C.

S S S S S S S S S S S S S E S

|------------------------------------------------|

|-12-15-12----12-12------------------------------|

|----------15-------15-14-12-15-14-12-14-12------|

|---------------------------------------------14-|

|------------------------------------------------|

|------------------------------------------------|

|

| PM---------------------------------------------

| S S S S S S S S S S S S S S S S

|------------------------------------------------|

|------------------------------------------------|

|------------------------------------------------|

|------------------------------------------------|

|------------------------------------------------|

|--0--0--0--0--7--7--0--0--0--0--6--6--0--0-0--0-|





E5 D#5 B5 Bb5

|------3-------| |--3--|

E E S S S S S S S S S S S S S S S

|-------------------------------------------------------------|

|-------------------------------------------------------------|

|-12----------------------------------------------------------|

|------14p==13p==12h14p13p12h14p13p=12------------------------|

|--------------------------------------14p13p12-14p13p12-12---|

|-------------------------------------------------------------|

|

|----------------------|

| S S S S S S E +E E E E

|-------------------------------------------------------------|

|-------------------------------------------------------------|

|-------------------------------------------------------------|

|--------------------------9----(9)-----8---------------------|

|--------------------------7----(7)-----6--------9-----8------|

|--7-7----0----0-----0--0------------------------7-----6------|





N.C. E5 D#B5 Bb5

S S S S S S S S S S S S S S S S S S S S S S S S Q S S S S

|-----------------------------------------|------------------x-------------|

|-----------------------------------------|------------------x-------------|

|-----------------------------------------|------------------x-------------|

|-----------------------------------------|-----------------------14-14-14-|

|-------12-14-13-12-------x-x-x-x-x-x-x-x-|-x-x-x-x-x-x-x-x----------------|

|-12-15-------------14-12-x-x-x-x-x-x-x-x-|-x-x-x-x-x-x-x-x----------------|

|

| PM-------------------------------------------------|

| S S S S S S S S S S S S S S S S S S S S S S E +E E E E

|-----------------------------------------|--------------------------------|

|-----------------------------------------|--------------------------------|

|-----------------------------------------|--------------------------------|

|-----------------------------------------|-------------9---(9)-8----------|

|-----------------------------------------|-------------7---(7)-6--9-------|

|--0--0--0--0--7--7--0--0-0-0-6-6-0-0-0-0-|-7-7-0-0-0-0------------7-------|





N.C. Bb5 N.C. Bb5 N.C. Bb5 N.C. G5

S S S S Q S S S S Q S S S S Q S S S S Q

|---------------------------------|---------------------------------|

|-17p15-----------17p15-----------|-17p15-----------17p15-----------|

|-------16-16-15--------16-16-15--|-------16-16-15--------16-16-15--|

|---------------------------------|---------------------------------|

|---------------------------------|---------------------------------|

|---------------------------------|---------------------------------|

|

| S S S S Q S S S S Q S S S S Q S S S S Q

|---------------------------------|---------------------------------|

|---------------------------------|---------------------------------|

|---------------------------------|---------------------------------|

|---------------------------------|---------------------------------|

|--7--5--------8---7--5--------8--|--7--5--------8---7--5--------5--|

|--------7--5--6---------7--5--6--|--------7--5--6---------7--5--3--|





N.C. Bb5 N.C. Bb5

S S S S Q S S S S Q

|-24-22-----------24-22-----------|

|-------24-24-23--------24-24-23--|

|---------------------------------|

|---------------------------------|

|---------------------------------|

|---------------------------------|

|

| S S S S Q S S S S Q

|---------------------------------|

|---------------------------------|

|---------------------------------|

|---------------------------------|

|--7--5--------8---7--5--------8--|

|--------7--5--6---------7--5--6--|





N.C. Bb5 N.C. G5 E5

S S S S Q S S S S E E H H

|-24-22-----------24-22-------------|-----------------*|

|-------24-24-23--------24-24-23-20-|-----------------*|

|-----------------------------------|-21\-------------*|

|-----------------------------------|-----------------*|

|-----------------------------------|-----------------*|

|-----------------------------------|-----------------*|

|

| S S S S Q S S S S Q E H Q E

|-----------------------------------|-----------------*|

|-----------------------------------|-----------------*|

|-----------------------------------|-----------------*|

|-----------------------------------|--2--------------*|

|--7--5--------8---7--5--------5----|--2--------------*|

|--------7--5--6---------7--5--3----|--0--------------*|









--------------------------------------------------------------------------------





Duration Legend

---------------

W - whole; H - half; Q - quarter; E - 8th; S - 16th; T - 32nd; X - 64th; a - acciaccatura

+ - note tied to previous; . - note dotted; .. - note double dotted

Uncapitalized letters represent notes that are staccato (1/2 duration)

Irregular groupings are notated above the duration line

Duration letters will always appear directly above the note/fret number it represents the

duration for. Duration letters with no fret number below them represen
Get this song at amazon.com      Ebay     Ringtones Ringtones  


Learn to play: Songwriting, Piano, Harmonica, Guitar

Related Misc Unsigned Bands Tabs

The Immortal Change - Fake Society tabs
Holden Lager - Actions For Love tabs
Your Girlfriend Naked - While Im Still 14 Just Another Lie tabs
Kool Shades - Placebos tabs
Gavina - Fender Bender tabs
Here She Comes - By Deathjoker tabs
Betontod - Intregration tabs
Bruddha - First Chances tabs
Sonic Threesome - Peach Intro tabs
Out Of Area - Far Away Get Me There tabs
Break The Silence - Can Anyone Inside Try tabs
The Fallout Theory - Dont Show Up Perfect tabs
In Love And Hate - 300 tabs
The Neutralized - Bacon And Eggs tabs
Murgent - Gold tabs
Brothers Streep - Pirate Friends And Me tabs
Overtone - Hurt And Lost tabs
Defused - Xm-s Entrance tabs
7 Car Pileup - The Polar Bear Song tabs
Fallen Life - I Hope You Know tabs


Guitar Tabs









All tabs are property and copyright of their owners. All tabs provided for educational purposes only. Privacy Policy, DMCA