Misc Unsigned Bands

Sponge Cola - Cigarette Tabs



More from Misc Unsigned Bands

Misc Unsigned Bands Tabs
Misc Unsigned Bands Chords
Misc Unsigned Bands Bass



Title: Cigarette
Artist: Sponge Cola
Tabbed by: Jeff Lualhati

Intro
E|-12h---------|------------------------------------|
B|-12h---------|------------------------------------|
G|-12h---------|------------------------------------|
D|-12h---------|---5---5-4---------9-9s10-9-7s5-5---|
A|-12h---------|-3---4-----5--5s7-------------------|
E|-12h--12-12-|------------------------------------|

Verse
E|------------------------------------|
B|------------------------------------|
G|------------------------------------|
D|---5---5-4---------9-9s10-9-7s5-5---|
A|-3---4-----5--5s7-------------------|
E|------------------------------------|

Chorus
G Bm C Cm


Get this song at amazon.com      Ebay     Ringtones Ringtones  


Learn to play: Songwriting, Piano, Harmonica, Guitar

Related Misc Unsigned Bands Tabs

The Villanova Junction - Lousy Host tabs
In Love And Hate - 300 tabs
Romantic Retards - What We Want tabs
Caje - Not Fair tabs
4sf - Rembering You Intro tabs
Backseat Goodbye - Love Song tabs
Zzl - Cool Off Live tabs
Pagan Scriptures - Teach You tabs
Hank Marvin - Sleepwalk tabs
Aaron Ross - Jack Kerouac tabs
Nitroglycerin - Medication tabs
Gods Shadow - Dead Serenade tabs
Zygote - Kousharee tabs
Autumns Illusion - Animosity tabs
Social Cancer- March Of The Punks tabs
Red Degree - Difference tabs
Konspiracy - Only One tabs
Spatch 45 - Phone Call tabs
The Sound Agents - Take My Hand Bass tabs
Blinded Mind - Time Of Regret tabs


Guitar Tabs









All tabs are property and copyright of their owners. All tabs provided for educational purposes only. Privacy Policy, DMCA