Misc Unsigned Bands

Some Kind Of Hero - My Song Tabs



More from Misc Unsigned Bands

Misc Unsigned Bands Tabs
Misc Unsigned Bands Chords
Misc Unsigned Bands Bass



My SongŪ

I left the background on this page blank so that if anyone wants to print our
tabs they can go ahead and do it, just please make sure you get our permission
before you post them anywhere else.
--------------------------------------------------------------------------------
For This Song:
() = Pull
-> = Slide
This tab is confusing, so beware!


Intro:


E--|-------------------------------------------|
B--|-------------------------------------------|
G--|-------------------------------------------|
D--|---6-7-6---6-7-6-(12)---4-5-4---4-5-4-(12)-|
A--|-7------7------(12)--5------5------(12)----|
E--|-------------------------------------------|

Note: On A, play second pull as "G" for this last line.

E--|--------------------------------------------|
B--|--------------------------------------------|
G--|--------------------------------------------|
D--|---2-3-2--2-3-2-(12)---4-5-4--4-5-4----(12)-|
A--|-3----3-----(12)-5----5----->0-0------------|
E--|--------------------------------------------|


E--|-------------------------------------------|
B--|-------------------------------------------|
G--|-------------------------------------------|
D--|----(12)----(2)----------------------------|
A--|----(12)----(2)---Short Drum Roll----------|
E--|-0-0----0-0--------------------------------|


Verse:

E--|-------------------------------------------|
B--|-------------------------------------------|
G--|-------------------------------------------|
D--|--2-2-2-2----------------------------------|
A--|--2-2-2-2---2-2-2-2---4-4-4-4---6-6-6-6----|
E--|--0-0-0-0---3-3-3-3---5-5-5-5---7-7-7-7----|


Play this last part (4x)

G (3x); Em (4x)


Get this song at amazon.com      Ebay     Ringtones Ringtones  


Learn to play: Songwriting, Piano, Harmonica, Guitar

Related Misc Unsigned Bands Tabs

Krooked Tooth - Now Ive Came tabs
Kool Shades - Too Much Reggae Intro tabs
Overdrive 75 - Untitled 1 tabs
Vaginal Incest - Cuntcore tabs
The Random Rockers tabs
Gods Shadow - Dead Serenade tabs
The Pits Of Hell - Reborn tabs
Jeff Carter - Jootmin Intro tabs
Gauze - Alex tabs
The Scorching Todds - Come Back To The Jungle tabs
Frozen Over - Moon Dance tabs
Dagon - Lies tabs
5 Degrees Kelvin - Get Lost tabs
September Solstice - Stars tabs
Demonic Forces - Rising Awake tabs
Duckbomb - Post Traumatic Stress Disorder Bass tabs
These Silhouettes - Surrender Your Heart tabs
Burn The Witch - Agnostic Frost tabs
Hadji And The Turbans - Circle City Blues tabs
Horseshoes And Handgrenades - Even The Deaf tabs


Guitar Tabs









All tabs are property and copyright of their owners. All tabs provided for educational purposes only. Privacy Policy, DMCA