Misc Unsigned Bands

Silent Bombs - An Endless Pain Tabs



More from Misc Unsigned Bands

Misc Unsigned Bands Tabs
Misc Unsigned Bands Chords
Misc Unsigned Bands Bass

                              aN eNDLESs pAiN                               



silent bombs



the second guitar is bout half way down the page but they both

start at the same time. comments are appretiated, have fun



Guitar 1







E E E E E E E E E E E E E E E E

E||--------------------------|--------------------------|

B||--------------------------|--------------------------|

G||--------------------------|--------------------------|

D||--------------------------|--------------------------|

A||--------------------------|--4--4--4--4--4--4--4--4--|

E||--2--2--2--2--2--2--2--2--|--------------------------|





E E E E E E E E E E E E E E E E

--------------------------|---------------------------||

--------------------------|---------------------------||

--------------------------|--------------------------*||

--------------------------|--------------------------*||

--5--5--5--5--5--5--5--5--|--4--4--4--4--2--2--2--2---||

--------------------------|---------------------------||





E E E E E E E E E E E E E E E E

---------------------------|--------------------------|

---------------------------|--------------------------|

*--------------------------|--------------------------|

*--------------------------|--------------------------|

---------------------------|--4--4--4--4--4--4--4--4--|

---2--2--2--2--2--2--2--2--|--------------------------|





E E E E E E E E E E E E E E E E

--------------------------|---------------------------||

--------------------------|---------------------------||

--------------------------|--------------------------*||

--------------------------|--------------------------*||

--5--5--5--5--5--5--5--5--|--4--4--4--4--2--2--2--2---||

--------------------------|---------------------------||





E E E E E E E E E E E E E E E E

---------------------------|--------------------------|

---------------------------|--------------------------|

*--------------------------|--------------------------|

*-----------------6--x--4--|-----------------6--x--7--|

---4--4--4--4--x--4--x--2--|--4--4--4--4--x--4--x--5--|

---2--2--2--2--x-----------|--2--2--2--2--x-----------|





E E E E E E E E E E E E E E Q

--------------------------|--------------------------||

--------------------------|--------------------------||

--------------------------|-------------------------*||

--x--6--x--4--------------|-------------------------*||

--x--4--x--2--4--4--4--4--|--x--4--4--4--4--4--2-----||

--------------2--2--2--2--|--x--2--2--2--2--2--0-----||





E E E E E E E E H H H H

--------------------------|-----|--------------------|--------------------|

--------------------------|-----|--------------------|--------------------|

--------------------------|-----|--------------------|--------------------|

--------------------------|-----|--------------------|--------------------|

--x--4--4--4--4--4--2--4--|-----|--2--------4--------|--5--------4--------|

--x--2--2--2--2--2--0--2--|-----|--0--------2--------|--3--------2--------|





H H H H H H

--------------------|--------------------|--------------------|

--------------------|--------------------|--------------------|

--------------------|--------------------|--------------------|

-----------4--------|--7--------4--------|--------------------|

--2--------2--------|--5--------2--------|--2--------4--------|

--0-----------------|--------------------|--0--------2--------|





H H H H H H

--------------------|--------------------|---------------------|

--------------------|--------------------|---------------------|

--------------------|--------------------|---------------------|

--------------------|--------------------|---------------------|

--5--------4--------|--2--------2--------|------------2--------|

--3--------2--------|--0--------0--------|--3~--------0--------|





E E E E E E E E E E E E E E E E

|---------------------------|--------------------------|

|---------------------------|--------------------------|

|*--------------------------|--------------------------|

|*-----------------6--x--4--|-----------------6--x--7--|

|---4--4--4--4--x--4--x--2--|--4--4--4--4--x--4--x--5--|

|---2--2--2--2--x-----------|--2--2--2--2--x-----------|





E E E E E E E E E E E E E E Q

--------------------------|--------------------------||

--------------------------|--------------------------||

--------------------------|-------------------------*||

--x--6--x--4--------------|-------------------------*||

--x--4--x--2--4--4--4--4--|--x--4--4--4--4--4--2-----||

--------------2--2--2--2--|--x--2--2--2--2--2--0-----||





E E E E E E E E Q Q H Q Q H

--------------------------|-----|---------------------|---------------------|

--------------------------|-----|---------------------|---------------------|

--------------------------|-----|---------------------|---------------------|

--------------------------|-----|-------2----4--------|-------2----4--------|

--x--4--4--4--4--4--2--4--|-----|--4------------------|--4------------------|

--x--2--2--2--2--2--0--2--|-----|---------------------|---------------------|





Q E E E Q E Q Q H Q Q H

------------------------|---------------------|---------------------|

------------------------|---------------------|---------------------|

-------4--2--4----------|---------------------|---------------------|

--4-------------4-------|--4----2----4--------|--4------------------|

------------------------|---------------------|-------2----4--------|

------------------------|---------------------|---------------------|





E E Q Q Q E E E E E E E E E E E E E E E E

-----------------------||---------------------------|--------------------------|

-----------------------||---------------------------|--------------------------|

-----------------------||*--------------------------|--------------------------|

-----------------------||*-----------------6--x--4--|-----------------6--x--7--|

-------------4---------||---4--4--4--4--x--4--x--2--|--4--4--4--4--x--4--x--5--|

--4--2--4----2---------||---2--2--2--2--x-----------|--2--2--2--2--x-----------|





E E E E E E E E E E E E E E Q

--------------------------|--------------------------||

--------------------------|--------------------------||

--------------------------|-------------------------*||

--x--6--x--4--------------|-------------------------*||

--x--4--x--2--4--4--4--4--|--x--4--4--4--4--4--2-----||

--------------2--2--2--2--|--x--2--2--2--2--2--0-----||





E E E E E E E E E E E Q Q E

--------------------------|-----|------------------------|

--------------------------|-----|------------------------|

--------------------------|-----|------------------------|

--------------------------|-----|--2--2--2--4----5-------|

--x--4--4--4--4--4--2--4--|-----|--2--2--2--4----5-------|

--x--2--2--2--2--2--0--2--|-----|--0--0--0--2----3-------|





E E E Q Q E E E E Q Q E H H

------------------------|------------------------|--------------------|

------------------------|------------------------|--------------------|

------------------------|------------------------|--------------------|

--2--2--2--4----5-------|--2--2--2--4----5----4--|--2-----------------|

--2--2--2--4----5-------|--2--2--2--4----5----4--|--2-----------------|

--0--0--0--2----3-------|--0--0--0--2----3----2--|--0-----------------|





E E E Q Q E E E E Q Q E E E E Q Q E

------------------------|------------------------|------------------------|

------------------------|------------------------|------------------------|

------------------------|------------------------|------------------------|

--2--2--2--4----5-------|--2--2--2--4----5-------|--2--2--2--4----5----4--|

--2--2--2--4----5-------|--2--2--2--4----5-------|--2--2--2--4----5----4--|

--0--0--0--2----3-------|--0--0--0--2----3-------|--0--0--0--2----3----2--|





W

-------------------||

-------------------||

-------------------||

--2----------------||

--2----------------||

--0----------------||













Guitar 2







W W W

E||-------------------|-------------------|-------------------|

B||-------------------|-------------------|-------------------|

G||-------------------|-------------------|-------------------|

D||-------------------|-------------------|-------------------|

A||-------------------|-------------------|-------------------|

E||-------------------|-------------------|-------------------|





W E E Q H E E Q H

--------------------||-----------------------|----------------------|

--------------------||-----------------------|----------------------|

-------------------*||*----------------------|----------------------|

-------------------*||*----------------------|--6--6--6-------------|

--------------------||---4--4--4-------------|--4--4--4-------------|

--------------------||---2--2--2-------------|----------------------|





E E Q H E E Q E E Q H Q Q

----------------------|-------------------------||----------------------|

----------------------|-------------------------||----------------------|

----------------------|------------------------*||*-----------6----4----|

--7--7--7-------------|--6--6--6----4--4--4----*||*--4------------------|

--5--5--5-------------|--4--4--4----2--2--2-----||----------------------|

----------------------|-------------------------||----------------------|





H Q Q Q Q H W

---------------------|---------------------|--------------------||

---------------------|---------------------|--------------------||

-----------6----7----|--6----4-------------|-------------------*||

--4------------------|------------4--------|--2----------------*||

---------------------|---------------------|--------------------||

---------------------|---------------------|--------------------||





Q Q Q Q H H

-----------------------|--------------------|-----------|-----------|

-----------------------|--------------------|-----------|-----------|

------------2----------|--------------------|-----------|-----------|

--2----4---------4~----|--L-----------------|-----------|-----------|

-----------------------|--------------------|-----------|-----------|

-----------------------|--------------------|-----------|-----------|





-----------|-----------|-----------|-----------|-----------|-----------|

-----------|-----------|-----------|-----------|-----------|-----------|

-----------|-----------|-----------|-----------|-----------|-----------|

-----------|-----------|-----------|-----------|-----------|-----------|

-----------|-----------|-----------|-----------|-----------|-----------|

-----------|-----------|-----------|-----------|-----------|-----------|





H Q Q H Q Q Q Q H

|----------------------|---------------------|---------------------|

|----------------------|---------------------|---------------------|

|*-----------6----4----|-----------6----7----|--6----4-------------|

|*--4------------------|--4------------------|------------4--------|

|----------------------|---------------------|---------------------|

|----------------------|---------------------|---------------------|





W Q Q Q Q H H

--------------------||-----------------------|--------------------|

--------------------||-----------------------|--------------------|

-------------------*||------------2----------|--------------------|

--2----------------*||--2----4---------4~----|--L-----------------|

--------------------||-----------------------|--------------------|

--------------------||-----------------------|--------------------|





E E E E E E E E E E E E E E E E

--------------------------|--------------------------|

--------------------------|--------------------------|

--------------------------|--------------------------|

--------------------------|--------------------------|

--4--4--4--4--4--4--4--4--|--4--4--4--4--4--4--4--4--|

--2--2--2--2--2--2--2--2--|--2--2--2--2--2--2--2--2--|





E E E E E E E E E E E E E E E E

--------------------------|--------------------------|

--------------------------|--------------------------|

--------------------------|--------------------------|

--4--4--4--4--4--4--4--4--|--4--4--4--4--4--4--4--4--|

--2--2--2--2--2--2--2--2--|--2--2--2--2--2--2--2--2--|

--------------------------|--------------------------|





E E E E E E E E E E E E E E Q H Q Q

--------------------------|-------------------------||----------------------|

--------------------------|-------------------------||----------------------|

--------------------------|-------------------------||*-----------6----4----|

--4--4--------------------|-------------------------||*--4------------------|

--2--2--2--2--2--4--4--4--|--6--6--4--4--6--6-------||----------------------|

--------0--0--0--2--2--2--|--4--4--2--2--4--4-------||----------------------|





H Q Q Q Q H W

---------------------|---------------------|--------------------||

---------------------|---------------------|--------------------||

-----------6----7----|--6----4-------------|-------------------*||

--4------------------|------------4--------|--2----------------*||

---------------------|---------------------|--------------------||

---------------------|---------------------|--------------------||





Q Q Q Q H H

-----------------------|--------------------|-----------|-----------|

-----------------------|--------------------|-----------|-----------|

------------2----------|--------------------|-----------|-----------|

--2----4---------4~----|--L-----------------|-----------|-----------|

-----------------------|--------------------|-----------|-----------|

-----------------------|--------------------|-----------|-----------|





-----------|-----------|-----------|-----------|-----------|-----------||

-----------|-----------|-----------|-----------|-----------|-----------||

-----------|-----------|-----------|-----------|-----------|-----------||

-----------|-----------|-----------|-----------|-----------|-----------||

-----------|-----------|-----------|-----------|-----------|-----------||

-----------|-----------|-----------|-----------|-----------|-----------||











Duration Legend

---------------

W - whole

H - half

Q - quarter

E - 8th

S - 16th

T - 32nd

X - 64th

. - note dotted

|-n-| - n-tuplets





Tablature Legend

----------------

L - tied note

x - dead note

g - grace note

(n) - ghost note

> - accentuded note

NH - natural harmonic

AH - artificial harmonic

TH - tapped harmonic

SH - semi harmonic

PH - pitch harmonic

h - hammer on

p - pull off

b - bend

br - bendRelease

pb - preBend

pbr - preBendRelease

brb - bendReleaseBend


/ - tremolo bar dip


- tremolo bar dive

-/n - tremolo bar Release up

/n\ - tremolo bar inverted dip

/n - tremolo bar return

-
- tremolo bar Release down

S - shift slide

s - legato slide

/ - slide into from below or out of upwards

\ - slide into from above or out of downwards

~ - vibrato

W - wide vibrato

tr - trill

TP - tremolo picking

T - tapping

S - slap

P - pop

Added by tabs-database.com and our distinguished partners
Get this song at amazon.com      Ebay     Ringtones Ringtones  


Learn to play: Songwriting, Piano, Harmonica, Guitar

Related Misc Unsigned Bands Tabs

Forces Of Fate - Her Tears tabs
Democracy For Listeners - Never tabs
Meganoidi - Zeta Reticoli tabs
Instinct - Say You tabs
Turn Off November - Flavor Of The Mouth tabs
Free Beer - Filthy Rich tabs
Murder Rape - Echoes From The New Millenium tabs
Chance Ott - Calm Before The Storm tabs
Zygote - Ladies tabs
Red Degree - Difference tabs
Mollys Nightmare - Your Last Goodbye (album) tabs
Noisy Box - Hoy No tabs
Tmp - Alyssa tabs
Death By Monkeys - My Best Friends A Terrorist tabs
Out Of Area - Far Away Get Me There tabs
Nothing So Far - Nothing So Far Album tabs
Looza N Robin - Pahilo Naam tabs
Hoist - There There tabs
Meth O Mine - In The Closet Intro tabs
Artisans Of Torment - Born To Die tabs


Guitar Tabs









All tabs are property and copyright of their owners. All tabs provided for educational purposes only. Privacy Policy, DMCA