Misc Unsigned Bands

Shoot The Moon - Know The Caste Im The New Age Bass Tabs



More from Misc Unsigned Bands

Misc Unsigned Bands Tabs
Misc Unsigned Bands Chords
Misc Unsigned Bands Bass



Know the Caste Iím the New Age

Shoot the Moon



G:----------------------------------------------------------------------|

D:----------------------------------------------------------------------| 7x

A:---------------7-------------------------------9--7-------------------|

E:-2--4--5--7-----7--9--7--5---2--4--5--7----------9-7-5----------------|



Then



G:--------------------------------------------------------------------|

D:--------------------------------------------------------------------| 2x

A:----------------------------5-5-5-5-5-5-5-5-------------------------|

E:--2-2--222---2-2--222-----------------------2-2-222-----------------|



G:---------------------------------------------------------------------------|

D: --------------------------------------------------------------------------|

A: -----------------------------------55-55-55-55-55-55----------------------|

E: -22--22--22-22-22-22-22-22---------------------------22-22--22-22-22------|





G:--------------------------------------------------------------------------|

D:--------------------------------------------------------------------------|

A:------------------------------------------------------9--7----------------|

E:------5--5---2---2~----2h4p2---2h4p2---2~------------9--7--5--2-----------|





G:----------------------------------------------------------------------|

D:----------------------------------------------------------------------| 7x

A:---------------7-------------------------------9--7-------------------|

E:-2--4--5--7-----7--9--7--5---2--4--5--7----------9-7-5----------------|



Then



G:--------------------------------------------------------------------|

D:--------------------------------------------------------------------| 2x

A:----------------------------5-5-5-5-5-5-5-5-------------------------|

E:--2-2--222---2-2--222-----------------------2-2-222-----------------|





G:--------------------------------------------------------------------------|

D: -------------------------------------------------------------------------|

A: -----------------------------------55-55-55-55-55-55---------------------|

E: -22--22--22-22-22-22-22-22---------------------------22-22--22-22-22-----|



G:--------------------------|

D:--------------------------| 2 times

A:------975-----------------|

E:-2---------7542-----------|



Then similar to above, but higher and going up and down



G:-----------------|

D:-----------------| Play a lot of times till guitars start sliding

A:-----------------|

E:-2-4-5-4---------|



Then



G:--------------------------------|

D:--------------------------------|

A:--------------------------------| rhythm not shown correctly

E:--2-2---2-2-2-2-2-2---22-22-22--|





G:---------------------------------|

D:---------------------------------| I donít know if its correct, but it sounds

A:------975------------------------| good

E:-2---------7542------------------|





G:-------------------------------------------------------------|

D:-------------------------------------------------------------|

A:---------------7-------------------------------9--7----------|

E:-2--4--5--7-----7--9--7--5---2--4--5--7----------9-7-5-------|





G:-------------------------------------------------------------------------|

D:-------------------------------------------------------------------------|

A:---------------7-------------------------------9----7--------------------|

E:-2--4--5--7-----7--9--7--5---2--4--5--7----------9----7----5----2--------|Added by tabs-database.com and our distinguished partners
Get this song at amazon.com      Ebay     Ringtones Ringtones  


Learn to play: Songwriting, Piano, Harmonica, Guitar

Related Misc Unsigned Bands Tabs

Atombender - Yoda In My Pocket tabs
Erusalem - Pappa Vem Har Gjort tabs
Phyton - Calling Out tabs
Drennan Bragg Experiment- Mr. Soul tabs
Verbatym - Magna Carta tabs
The Afterlife - X111 tabs
September Solstice - Purgatory tabs
Route 101 - Four Guys And A Bass Guitar tabs
Corruption - Better Of Dead tabs
Astring Asoul - Goodbye tabs
Swamp Monster - Back Magic tabs
4th Degree Burn - Persuade Yourself tabs
Rump-le - Public Aid tabs
Caelum Ferrum - Introduction tabs
Spooter - Hello Mcloud tabs
Eccowave - Smooth tabs
Silbermond - Kartenhaus tabs
Kid Deposit Triumph - Stay Gold Ponyboy Intro tabs
Bloodthirsty - Spawned tabs
Cast Of Family - Ysv X tabs


Guitar Tabs









All tabs are property and copyright of their owners. All tabs provided for educational purposes only. Privacy Policy, DMCA