Misc Unsigned Bands

Schoolyard Heroes-blood Spattered Sundress Tabs



More from Misc Unsigned Bands

Misc Unsigned Bands Tabs
Misc Unsigned Bands Chords
Misc Unsigned Bands Bass




Artist: Schoolyard Heroes
Album: The Funeral Sciences
Title: Blood-Spattered Sundress

~Intro~
e--------------------------------|
B--------------------------------|
G-6~/-9~\-6~---------------------|
D-6~/-9~\-6~-7777-9999-----------|
A-4~/-7~\-4~-7777-9999-----------|
E------------5555-7777-----------|

~Verse 1~ "Okay let's see I guess I'll be brief"
e--------------------------------|
B--------------------------------| Play twice
G-6~/-9~\-6~---------------------|
D-6~/-9~\-6~-7777-9999-----------|
A-4~/-7~\-4~-7777-9999-----------|
E------------5555-7777-----------|

"I know I'm not as smart as you"

C#m E C#m (barre chords)
e-------------------------------------|
B---5---------9---------5-------------| I'm pretty sure the picking
G-----6---6-----9---9-----6---6-------| pattern isn't right but it
D-------6---------9---------6---------| sounds okay.
A--4---------7--------4---------------|
E-------------------------------------|

"I'm not fucking dumb"
e-----------------------|
B-----------------------|
G-----------------------|
D-7777-9999-------------|
A-7777-9999-------------|
E-5555-7777-------------|

"Don't care about your chemistry"
C#m E C#m (barre chords)
e-------------------------------------|
B---5---------9---------5-------------|
G-----6---6-----9---9-----6---6-------|
D-------6---------9---------6---------|
A--4---------7--------4---------------|
E-------------------------------------|

"Persuing me to twist my tounge"
e-----------------------|
B-----------------------|
G-----------------------|
D-7777-9999-------------|
A-7777-9999-------------|
E-5555-7777-------------|


~Chorus~ "From enemies to friends..."
e-----------------------|
B-----------------------|
G-66--------------------|
D-66-99-77-99-----------|
A-44-99-77-99-----------|
E----77-55-77-----------|

"It seems this friendship is at it's end."
e-----------------------------------|
B-----------------------------------|
G-----------------------------------|
D-77777777-99999999-----------------|
A-77777777-99999999-----------------|
E-55555555-77777777-----------------|


Repeat the chorus

Repeat the intro twice

Repeat the chorus twice



~Bridge~
e---------------------------------------|
B---------------------------------------|
G---------------------------------------|
D-7-7---------------9-9-----------------|
A-7-7(7xpalm-muted)-9-9(7xpalm-muted)---|
E-5-5---------------7-7-----------------|

e------------------------------------------|
B------------------------------------------|
G------------------------------------------|
D-11-11---------------12-12----------------|
A-11-11(7xpalm-muted)-12-12(7xpalm-muted)--|
E-9--9----------------10-10----------------|



repeat bridge two more times without palm-muting
except hit the "D" one more time.


~Solo (chords)~
play the bridge 4 times with out palm-muting under the
solo

Repeat chorus and hold C#
and end on it.



hope you enjoy the tab.
have fun.



Get this song at amazon.com      Ebay     Ringtones Ringtones  


Learn to play: Songwriting, Piano, Harmonica, Guitar

Related Misc Unsigned Bands Tabs

The Clevs - Blue Fog tabs
Devils Warfare - Life Like This tabs
Fireball - We Wish Youa Merry Christmas tabs
Animo - Songwriting For Dummies tabs
Weenus - Gia tabs
The Perfect Failure - Oh The Irony tabs
Under War Torn Skies - Puppet tabs
10 Things - Jam 1 tabs
Mike Lisi - Blanket tabs
District 28 - The Slow Song tabs
Another Day Down - Spin Him Around - Erics Part tabs
Regret Comes Last - Romeo Vs Juliet Round 1 tabs
Draco - The Slacker tabs
Q Mix - Smells Like Song 2 Bass tabs
Backseat Goodbye - Love Song tabs
Method 68 - Laminated Floorboards In A Winter Wonderland tabs
Endangered Species - Sleepy Head Bass tabs
The Neutralized - Cop tabs
Dependent 613 - Crawling tabs
Shot By Sunrise - Days Go By tabs


Guitar Tabs









All tabs are property and copyright of their owners. All tabs provided for educational purposes only. Privacy Policy, DMCA