Misc Unsigned Bands

Reduced To Clear - Collection Of Smashed Bottles Tabs



More from Misc Unsigned Bands

Misc Unsigned Bands Tabs
Misc Unsigned Bands Chords
Misc Unsigned Bands Bass



Yes the intro is very similiar to Avenged Sevenfold's Unholy Confessions, and the solo

from Rising Force thats because we first played it at a tribute gig, we were tributing

Sevenfold And Yngwie Malmsteen, so weve took some licks and put them into a song. Enjoy.



The Song Layout Is ...

Intro

Verse

Chorus

Verse

Chorus

Drum Fill 1

Solo (Which Is From Yngwie's Rising Force)

Drum Fill 2

Breakdown

Intro to Fade



#----------------------------------PLEASE NOTE---------------------------------#

#This file is the author's own work and represents their interpretation of the #

#song. You may only use this file for private study, scholarship, or research. #

#------------------------------------------------------------------------------##



A COLLECTION OF SMASHED BOTTLES

As recorded by Reduced To Clear

(From the 2006 Album WE WAAY TOO GOOD FOR THIS SORTA THING)



Words by Reduced To Clear



Music by Carl Russell

Arranged by Carl Russell

Transcribed by Reduced To Clear



Gtr I (D# A# D# G# C F) - 'Lead Guitar'

Gtr II (D# A# D# G# C F) - 'Ryhtym Guitar'



Intro

Q=115 1.

4/4

Gtr I

E E E S E S E S E S E S S S S S S S E Q S H T T S S S S S E

||-----------------------|------------------------|----------------------||

||o----------------------|------------------------|---------------------o||

||-----------------------|------------------------|----------------------||

||--0-0------------------|-----------0---8-8----7-|-7--------------------||

||o-0-0-5-0-7-0-8-0-10-0-|-8-0-7h8p7---0-8-8----7-|-7---5---------------o||

||--0-0------------------|---------------8-8----7-|-7-----8-7-6-5-3-2-0--||

|

| Gtr II

| E E E S E S E S E S E S S S S S S S E Q S H H

||-----------------------|------------------------|----------------------||

||o----------------------|------------------------|---------------------o||

||-----------------------|------------------------|----------------------||

||--0-0-3---5---7----8---|-7---5h7p5-3---8-8----7-|-7--------------------||

||o-0-0---0---0---0----0-|---0---------0-8-8----7-|-7-------------------o||

||--0-0------------------|---------------8-8----7-|-7--------------------||





Verse

2.

~~~

q S S S S H E E E E E E Q 4x

||---------------------|------------------||

||o--------------------|-----------------o||

||---------------------|------------------||

||--0------------------|-6-5-0-3-0-3------||

||o-0--0-0-0-0---------|-6-5-0-3-0-3-----o||

||--0--0-0-0-0-/20\----|-6-5-0-3-0-3-[2]--||

|

| q S S S S H E E E E E E Q 4x

||---------------------|------------------||

||o--------------------|-----------------o||

||---------------------|------------------||

||--0------------------|-6-5-0-3-0-3--2---||

||o-0--0-0-0-0-/17\----|-6-5-0-3-0-3--2--o||

||--0--0-0-0-0---------|-6-5-0-3-0-3--2---||





Chorus

q S S S S E S S Q T T S S S S S S S S S S S S S S S

||----------------------|-9h10p9-6-----------------------------||

||o---------------------|----------10-8-6---------------------o||

||----------------------|-----------------9-7-6----------------||

||--0-------------------|-----------------------8-7-6----------||

||o-0--0-0-0-0-0-2-5p0--|-----------------------------8-7-6-5-o||

||--0--0-0-0-0-0-2-5p0--|--------------------------------------||

|

| q S S S S E S S Q H Q Q

||----------------------|--------------------------------------||

||o---------------------|-------------------------------------o||

||----------------------|--------------------------------------||

||--0-------------------|-8-------------------7-------6--------||

||o-0--0-0-0-0-0-2-5p0--|-8-------------------7-------6-------o||

||--0--0-0-0-0-0-2-5p0--|-8-------------------7-------6--------||





Drum Fill 1

H=H

W W W W

|----------|---------|----------|------|

|----------|---------|----------|------|

|----------|---------|----------|------|

|----------|---------|----------|------|

|----------|---------|----------|------|

|----------|---------|----------|------|





Solo - Rising Force

Double Time Q=230

Gtr I

S S S S S S S S S S S S S S E S S S S S S S S S S S S

S E

||--13p10-------13p10-------13p10-------12p10----|-13p10-------15p10-------13p10-------12p10----|

||o-------10-10-------10-10-------10-10-------10-|-------10-10-------10-10-------10-10-------11-|

||-----------------------------------------------|----------------------------------------------|

||-----------------------------------------------|----------------------------------------------|

||o----------------------------------------------|----------------------------------------------|

||-----------------------------------------------|----------------------------------------------|

|

| Q E E E E E E Q E E E E E E

||-----------------------------------------------|----------------------------------------------|

||o----------------------------------------------|----------------------------------------------|

||---7-------------------------------------------|--7-------------------------------------------|

||---7-------------------------------------------|--7-------------------------------------------|

||o--5-------------------------------------------|--5-------------------------------------------|

||---------------0-----0-----0-----0-----0-----0-|--------------0-----0-----0-----0-----0-----0-|





S S S S S S S S S S S S S S E S S S S S S S S S S S S S

E

|-13p10-------13p10-------13p10-------12p10----|-13p10-------15p10-------13p10-------12p10-----|

|-------11-11-------11-11-------11-11-------11-|-------11-11-------11-11-------11-11-------13--|

|----------------------------------------------|-----------------------------------------------|

|----------------------------------------------|-----------------------------------------------|

|----------------------------------------------|-----------------------------------------------|

|----------------------------------------------|-----------------------------------------------|

|

| Q E E E E E E Q E E E E E

E

|----------------------------------------------|-----------------------------------------------|

|----------------------------------------------|-----------------------------------------------|

|--3-------------------------------------------|--3--------------------------------------------|

|--3-------------------------------------------|--3--------------------------------------------|

|--1-----------1-----1-----1-----1-----1-----1-|--1-----------1-----1-----1-----1-----1-----1--|

|----------------------------------------------|-----------------------------------------------|





S S S S S S S S S S S S S S S S S S S S S S S S S S S S S S S S

|-12h15p12----12h15p12----12h15p12----12h13p12----|-12h15p12----12h17p12----12h15p12----12h13p12----|

|----------13----------13----------13----------13-|----------13----------13----------13----------13-|

|-------------------------------------------------|-------------------------------------------------|

|-------------------------------------------------|-------------------------------------------------|

|-------------------------------------------------|-------------------------------------------------|

|-------------------------------------------------|-------------------------------------------------|

|

| Q E E E E E E Q E E E E E E

|-------------------------------------------------|-------------------------------------------------|

|-------------------------------------------------|-------------------------------------------------|

|-------------------------------------------------|-------------------------------------------------|

|--5----------------------------------------------|--5----------------------------------------------|

|--5----------------------------------------------|--5----------------------------------------------|

|--5-----------5-----5-----5-----5-----5-----5----|--5-----------5-----5-----5-----5-----5-----5----|





~~ ~~ ~~ ~~

S S S S Q S S S S Q S S S S Q S S S S Q

|-17p13----13-17---5p1---1-5/---|-17p13----13-17---5p1---1-5/----||

|-------15-------------3--------|-------15-------------3--------o||

|-------------------------------|--------------------------------||

|-------------------------------|--------------------------------||

|-------------------------------|-------------------------------o||

|-------------------------------|--------------------------------||

|

| Q E E E E E E Q E E E E E E

|-------------------------------|--------------------------------||

|-------------------------------|-------------------------------o||

|--7----------------------------|--7-----------------------------||

|--7----------------------------|--7-----------------------------||

|--5----------------------------|--5----------------------------o||

|--------------0-0-0---0---0--0-|--------------0-0-0---0---0--0--||





~~ ~~ ~~ ~~

S S S S Q S S S S Q S S S S Q S S S S Q

|-18p15----15-18---6p3---3-6/---|-18p15----15-18---6p3---3-6/---|

|-------15-------------3--------|-------15-------------3--------|

|-------------------------------|-------------------------------|

|-------------------------------|-------------------------------|

|-------------------------------|-------------------------------|

|-------------------------------|-------------------------------|

|

| Q E E E E E E Q E E E E E E

|-------------------------------|-------------------------------|

|-------------------------------|-------------------------------|

|--3----------------------------|--3----------------------------|

|--3----------------------------|--3----------------------------|

|--1-----------1-1-1---1---1--1-|--1-----------1-1-1---1---1--1-|

|-------------------------------|-------------------------------|





~~ ~~ ~~ ~~

S S S S Q S S S S Q S S S S Q S S S S Q

|-15p12----12h15---3p0---0h3/---|-15p12----12h15---3p0---0h3/------|

|-------13-------------1--------|-------13-------------1-----------|

|-------------------------------|----------------------------------|

|-------------------------------|----------------------------------|

|-------------------------------|----------------------------------|

|-------------------------------|----------------------------------|

|

| Q E E E E E E Q E E E E E E

|-------------------------------|----------------------------------|

|-------------------------------|----------------------------------|

|-------------------------------|----------------------------------|

|--5----------------------------|--5-------------------------------|

|--5----------------------------|--5-------------------------------|

|--5-----------5-5-5---5---5--5-|--5-----------5-5-5---5---5--5----|





~~ ~~ ~~ ~~

S S S S Q S S S S Q S S S S Q S S S S Q

|-------------------------------|-------------------------------|

|-18p15----15-18---6p3---3-6/---|-18p15----15-18---6p3---3-6/---|

|-------15-------------3--------|-------15-------------3--------|

|-------------------------------|-------------------------------|

|-------------------------------|-------------------------------|

|-------------------------------|-------------------------------|

|

| Q E E E E E E Q E E E E E E

|-------------------------------|-------------------------------|

|-------------------------------|-------------------------------|

|--5----------------------------|--5----------------------------|

|--5----------------------------|--5----------------------------|

|--3-----------3-3-3---3---3--3-|--3-----------3-3-3---3---3--3-|

|-------------------------------|-------------------------------|





S S S S S S S S S S S S S S S S S S S S S S S S S S S S S S S E

|-3p0---0-3p0---3-6p3---3-6p3---3-|-9p6---6-9p6---9-12p9----9-12p9----12-|

|-----2-------2-------5-------5---|-----8-------8--------11--------11----|

|---------------------------------|--------------------------------------|

|---------------------------------|--------------------------------------|

|---------------------------------|--------------------------------------|

|---------------------------------|--------------------------------------|

|

| Q E E E E E E Q E E E E E E

|---------------------------------|--------------------------------------|

|---------------------------------|--------------------------------------|

|-2-------------------------------|-2------------------------------------|

|-2-------------------------------|-2------------------------------------|

|-0-------0---0---0---0---0---0---|-0-------0---0----0----0----0----0----|

|---------------------------------|--------------------------------------|





H.=H

|---3---| |---3---| |---3---|

S E S E E E E E E E E E

|-15-16p15-18p17p==15-----------------------|

|---------------------18p17p==15-14---------|

|-----------------------------------15p==14-|

|-------------------------------------------|

|-------------------------------------------|

|-------------------------------------------|

|

| Q E E E E E E

|-------------------------------------------|

|-------------------------------------------|

|--2----------------------------------------|

|--2----------------------------------------|

|--0--------0----0-----0----0-----0----0----|

|-------------------------------------------|





>

S S S S Q Q +Q +H H

|--------------------------------------|-------------------|

|--------------------------------------|-------------------|

|--------------------------------------|-------------------|

|-17p15p14-----------------------------|-------------------|

|----------17-16---17b18====(17)b19====|=(17)------17------|

|--------------------------------------|-------------------|

|

| Q E E E E E E Q E E E Q E

|--------------------------------------|-------------------|

|--------------------------------------|-------------------|

|--2-----------------------------------|-------------------|

|--2-----------------------------------|---2----------0----|

|--0-----------0-0--0-----0---0------0-|---2----------0----|

|--------------------------------------|---2---2-2--2-0--0-|





Drum Fill 2 Breakdown

4.115

Gtrs I, II

Q S S S S Q S S S S q S S S S q S S S S q S S S S q S S S S 4x

|------------------------||------------------------|-------------------------||

|------------------------||o-----------------------|------------------------o||

|------------------------||------------------------|-------------------------||

|-x-----------x----------||--0----------6----------|-3----------8------------||

|-x-----------x----------||o-0--0-0-0-0-6--6-6-6-6-|-3--3-3-3-3-8--8-8-8-8--o||

|-xr--x-x-x-x-x--x-x-x-x-||--0--0-0-0-0-6--6-6-6-6-|-3--3-3-3-3-8--8-8-8-8---||





Duration Legend

---------------

W - whole; H - half; Q - quarter; E - 8th; S - 16th; T - 32nd; X - 64th; a - acciaccatura

+ - note tied to previous; . - note dotted; .. - note double dotted

Uncapitalized letters represent notes that are staccato (1/2 duration)

Irregular groupings are notated above the duration line

Duration letters will always appear directly above the note/fret number it represents the

duration for. Duration letters with no fret number below them represent rests. Multi-

bar rests are notated in the form Wxn, where n is the number of bars to rest for. Low

melody durations appear below the staff



Tablature Legend

----------------

h - hammer-on

p - pull-off

b - bend

pb - pre-bend

r - bend release (if no number after the r, then release immediately)

/\ - slide into or out of (from/to "nowhere")

s - legato slide

S - shift slide

- natural harmonic

[n] - artificial harmonic

n(n) - tapped harmonic

~ - vibrato

tr - trill

T - tap

TP - trem. picking

PM - palm muting


/ - tremolo bar dip; n = amount to dip


- tremolo bar down

n/ - tremolo bar up

/n\ - tremolo bar inverted dip

= - hold bend; also acts as connecting device for hammers/pulls

Added by tabs-database.com and our distinguished partners
Get this song at amazon.com      Ebay     Ringtones Ringtones  


Learn to play: Songwriting, Piano, Harmonica, Guitar

Related Misc Unsigned Bands Tabs

Sharp Side Up - Teenman tabs
Blackdot - Lines Of Reflection tabs
Oubliette - Sam Sam Sam tabs
The Icarus Account - Hold On For Dear Life tabs
Butong Pakwan - And I Love Her tabs
Bullets Goes Better - Looking At Her Letters tabs
Cunt Wipes - Pizza Fart Bass tabs
Matahari - Embrace The Fallen tabs
The Quivering Blokes - Its Not My Scene tabs
Crackers - Thats Not Mine tabs
Xoxo Panda - Boys And Girls Good tabs
Aven Reachout - Tempting tabs
Blackdot - Empty tabs
Victorious Failure - Nothing And Everything tabs
An Awkward Symphony - Psychological Breakdown tabs
Krooked Tooth - Now Ive Came tabs
Harlots - Alien tabs
Their Theyre There - 572 Cuthbert Blvd tabs
La Vie En Rose - Logan Kendell tabs
Neuroplay - Untitled tabs


Guitar Tabs









All tabs are property and copyright of their owners. All tabs provided for educational purposes only. Privacy Policy, DMCA