Misc Unsigned Bands

Optikull Illusion - Want Some Candy Tabs



More from Misc Unsigned Bands

Misc Unsigned Bands Tabs
Misc Unsigned Bands Chords
Misc Unsigned Bands Bass



seprate guitar plays chorus througout the song. after the first five times the other

starts playing the versus until its over, then lets the seperate guitarst do a solo on the chorus



chorus

e -----------------------------------------------------------------------|

b -----------------------------------------------------------------------|

g ------------9-11-------------------------------------------------------|

d -10-9-9---9-11---------------------------------------- repeat-----| x5

a -10-9-9---7--9---------------------------------------------------------|

e --8-7-7----------------------------------------------------------------|



verse

e -----------------------------------------------------------|

b -----------------------------------------------------------|

g ------------------7-7-7-7-7--------------------------------|

d --9-9-9-9-5-5-5-5-7-7-7-7-7-7-7-7-7------------------------|

a --9-9-9-9-5-5-5-5-5-5-5-5-7-7-7-7-7------------------------|

e --7-7-7-7-3-3-3-3-----------5-5-5-5------------------------|



e -----------------------------------------------------------|

b -----------------------------------------------------------|

g ------------------7-7-7-7----------------------------------|

d --9-9-9-9-5-5-5-5-7-7-7-7-5-5------------------------------|

a --9-9-9-9-5-5-5-5-5-5-5-5-5-5------------------------------|

e --7-7-7-7-3-3-3-3---------7-7------------------------------|



chorus



verse x2Added by tabs-database.com and our distinguished partners
Get this song at amazon.com      Ebay     Ringtones Ringtones  


Learn to play: Songwriting, Piano, Harmonica, Guitar

Related Misc Unsigned Bands Tabs

Hourglass- ' Pretend' tabs
Rage Of Madness - Maybe A Rage Is Not A Bad Idea tabs
Stellar Freedom - Here For An Hour Away For A Year tabs
Pepper - Give It Up tabs
Fuck - Speener (intro) tabs
All The Below - Morse Code tabs
Swipe Inc - Take A Hint So Long Bass tabs
Yer Pop - Odors Bass tabs
Envirocides - Dirt Intro tabs
Hourglass- ' Saving You' tabs
Defiant - Tears Inside Me tabs
Generic Storm - Ill Be Your Nothing tabs
Fiftyone - Heartbreak tabs
Blinded Mind - Time Of Regret tabs
Blackdot - Empty tabs
Chance Ott - Calm Before The Storm tabs
Cast Of Family - Tt To The tabs
The Drennan Bragg Experience- I Love Guitar Masta tabs
Every Step Every Breath - Alphazordon tabs
A Striking Resemblance - Amy Americana tabs


Guitar Tabs









All tabs are property and copyright of their owners. All tabs provided for educational purposes only. Privacy Policy, DMCA