Misc Unsigned Bands

Mbp - Mexican Rapping Cats Bass Tabs



More from Misc Unsigned Bands

Misc Unsigned Bands Tabs
Misc Unsigned Bands Chords
Misc Unsigned Bands Bass



[----------------]

[----------------] Fast Funk/Rock

[---56-----------] x 4

[--4---4/5/6-----] Intro. Solo





[---------------------------] [---------------]

[---------------------------] [-8---------8---]

[---------------------------] x 5 [---6-----6-----] x2

[---3-3-3-3-8----5-4-6-5/4--] verse [-----8-8-------] Bridge



Intro Solo x 3

Outro Solo ---------- HERE

V

[-----------------------------------------------------------]

[---7-5-9/8-------------------------------------------------]

[------------5--6-------------------------------------------] x 1

[-----------------8-9/8/7/6/5/4-4-4-4-2-4-2-4/2/4/2----0----] EndAdded by tabs-database.com and our distinguished partners
Get this song at amazon.com      Ebay     Ringtones Ringtones  


Learn to play: Songwriting, Piano, Harmonica, Guitar

Related Misc Unsigned Bands Tabs

Bloody Squirrels - The Cold tabs
The Schwinging Sombreros - Lifeguard tabs
Americium - Egiptian Song Intro tabs
Yzrd - Chill tabs
Decastich - Reminiscions tabs
Crackers - Thats Not Mine tabs
Peppermint Creeps - Fuck Off And Die tabs
The Immortal Change - Rain Chaing Colours tabs
One Day Behind - The Future Bass tabs
Explosion Of The Insane - Say Goodbye Bass tabs
Reduced To Clear - Who Am I tabs
St Loki - Ready Intro tabs
Loser Face - Im Still Waiting tabs
Aven Reachout - Tempting tabs
Klazz Klownz - Broken Ribed Beauty tabs
Smallpools - Dreaming tabs
Blinded Youth - But Why tabs
Different Kind Of Assault - Deceit Bass tabs
Aggressive Audio - Ang Tigulang Bass tabs
Branded - Reflection tabs


Guitar Tabs









All tabs are property and copyright of their owners. All tabs provided for educational purposes only. Privacy Policy, DMCA