Misc Unsigned Bands

Logan Buie - Razor Tabs



More from Misc Unsigned Bands

Misc Unsigned Bands Tabs
Misc Unsigned Bands Chords
Misc Unsigned Bands Bass



logan buie - razor

this is a underground artist a good friend of mine been in bands such as face
of difiance and still breathing both now signed by solid state records you might
have cought the new cd "september" this is one of the only simple songs ive ever
heard him play and thought id share it its stuck with me ever since.....

as dropped to D

--------------------------------
-2-2-0-2-2-0-2-2-0-3-3-0-2-2---- repeat 4x total then strum...
--2-2---4-4---5-5---5-5---4-4---
--------------------------------
--------------------------------
--------------------------------

--- --- --- --- -x--x--x- ---
-2- -2- -2- -3- -x--x--x- -2-
-2- -4- -5- -5- -x--x--x- -4-
--- 9x --- 9x --- 9x --- 3x -x--x--x- --- 3x repeat 4X
--- or E --- --- --- -x--x--x- ---
--- --- --- --- -x--x--x- ---


then in quicker time

------------------------------------- ----------------------------------
-2--0--2--2--2--2--3--3--5--5--5--5-- --2--0--2--2--2--2--5--5--3-3-3-3-
-2--0--4--4--4--4--5--5--7--7--7--7-- --2--0--4--4--4--4--7--7--5-5-5-5-
------------------------------------- ----------------------------------
------------------------------------- ----------------------------------
------------------------------------- ----------------------------------


------------------------------------- ----------------------------------
-2--0--2--2--2--2--3--3--5--5--5--5-- -2--0--2--2--2--2--3--3--2-2-2-2--
-2--0--4--4--4--4--5--5--7--7--7--7-- -2--0--4--4--4--4--5--5--4-4-4-4--
------------------------------------- ----------------------------------
------------------------------------- ----------------------------------
------------------------------------- ----------------------------------


simple but really cool especialy if your just begining easy to learn
steal or whatever thats not the long version but it gives you a good
anyways just thought id share a song that has stuck with me and got
me started thatnks


Get this song at amazon.com      Ebay     Ringtones Ringtones  


Learn to play: Songwriting, Piano, Harmonica, Guitar

Related Misc Unsigned Bands Tabs

Reap - Sotbdii tabs
Vicious Instinct - High On Candy tabs
Single Stroke 7 - Screwin Around Solo tabs
The Random Rockers- Boredom tabs
Hourglass- ' Saving You' tabs
6 Feet To Death - Unexplainable tabs
The Williwaw Ingrates - Gust Of Wind tabs
Auo - Hersheys Without A Smile tabs
Spooter - New Life tabs
Grimm - Monkey Love tabs
Four Disorder - Count Me Out tabs
2020 Vision - Ham And Eggs tabs
The Pagans - Copyright Laws Bass tabs
Dicks In The Sun - She Is Naked tabs
Frozen Over - Moon Dance tabs
7 Odds Against - Grim Reaper Of Hearts tabs
If We Were Us - Everyone Has Germs Even You tabs
Envirocides - Dirt tabs
Disagree - Crumbs tabs
Corporeal - All We Got Bass tabs


Guitar Tabs









All tabs are property and copyright of their owners. All tabs provided for educational purposes only. Privacy Policy, DMCA