Misc Unsigned Bands

Kurbhead - Cause You Never Could Tabs



More from Misc Unsigned Bands

Misc Unsigned Bands Tabs
Misc Unsigned Bands Chords
Misc Unsigned Bands Bass

Cause you never could



Keep repeating this

Cause You Never Could Tab:

m=mute the note before it

s=slide





verse: Guitar 1 and Guitar 2 play

----0m0m0-3m3m3---------------------|

----2m2m2-5m5m5-33-222--------------|

----2m2m2-5m5m5-55-444--------------|

-----------------------55-444-------|

------------------------------------|

------------------------------------|

repeat this 6x on first verse but 4x on others



Chorus:



Guitar 1 plays

--22s55-22s55-22s55-------------------|

--44s77-44s77-44s77-55555555----------|

--44s77-44s77-44s77-77777777----------|

--------------------------77777777----|

--------------------------------------|

--------------------------------------|

repeat this once



Guitar 2 plays

---------------------------------------------------|

-9--9--9-9-9-9--9-9x3-1212121212121212-------------|

---------------------------------------------------|

1111111111111111x3-1414141414141414

--------------------------------------------------|

--------------------------------------------------|



Solo:Guitar 1

------------------------------------------------------|

---------987--------------------987-------------------|

--9797------9797-----9797----------9797---------------|

----------------------9--------------7--------987-----|

------------------------------------------------------|

------------------------------------------------------|



Solo:Guitar 2

--0-2s4-7------------------------------------------------------------------------------------|

-----------4-7-------------------------------------------------------------------------------|

---------------4s6-9-------------------------------------------------------------------------|

---------------------6-9s12------------------------------------------------------------------|

----------------------------9-12--------------------------14-12--------14-12-----------------|

---------------------------------9-12-14141414-14-12--------14-12---------12-14-15-17-19-21--|Added by tabs-database.com and our distinguished partners
Get this song at amazon.com      Ebay     Ringtones Ringtones  


Learn to play: Songwriting, Piano, Harmonica, Guitar

Related Misc Unsigned Bands Tabs

Setu Firestorm - The Fade tabs
Ego-trip - Dont Listen tabs
Classmate 67 - Hello To Me From You tabs
Inhumane - The One tabs
Another Sunday - Given tabs
Sanctity - Why Does tabs
This Side Down - Just For Show tabs
Crywank - Song For A Guilty Sadist tabs
Ssg - Voyager tabs
F M I - Screaming Taradactyl Of Death tabs
Sea Spong-the Craigs tabs
Sonic Disorder - The Unknown tabs
Hypnotix-2000 - Triumph tabs
Tiny Moving Parts - Vacation Bible School tabs
Slushie - A Place In The Sun tabs
Writing In Whispers - The Day tabs
Guard Rails - Why tabs
Irritation Overload - Mini Malmsteen tabs
The William Howard Taft Band - East-bound Train Acoustic tabs
Socrate Silence - Whos Gonna Say Anything tabs


Guitar Tabs









All tabs are property and copyright of their owners. All tabs provided for educational purposes only. Privacy Policy, DMCA