Misc Unsigned Bands

Journeyman - The Lonely Soul Of Dragon Tabs



More from Misc Unsigned Bands

Misc Unsigned Bands Tabs
Misc Unsigned Bands Chords
Misc Unsigned Bands Bass



BLACK METAL /,,/

www.mikseri.net/journeyman

www.myspace.com/journeymanfin





Journeyman - The lonely soul of dragon



gtr1

wwˆ

this song is tune 1 down step





|--3--| |--3--| |--3--| |--3--|

Q S S S S E E E E E E Q S S S S E E E E E E

D||--7------------6-----6-----6-----|--7------------6-----6-----6-----|

A||--8------------7-----7-----7-----|--8------------7-----7-----7-----|

F||--9------------8-----8-----8-----|--9------------8-----8-----8-----|

C||--9------------8-----8-----8-----|--9------------8-----8-----8-----|

G||--7----7-7-7-7-6-----6-----6-----|--7----7-7-7-7-6-----6-----6-----|

D||---------------------------------|---------------------------------|





|--3--| |--3--|

Q S S S S E E E E E E W

--7------------6-----6-----6-----|--7----------------|

--8------------7-----7-----7-----|--8----------------|

--9------------8-----8-----8-----|--9----------------|

--9------------8-----8-----8-----|--9----------------|

--7----7-7-7-7-6-----6-----6-----|--7----------------|

---------------------------------|-------------------|





|--3--| |--3--| |--3--| |--3--|

Q S S S S E E E E E E Q S S S S E E E E E E

--7------------6-----6-----6-----|--7------------6-----6-----6-----|

--8------------7-----7-----7-----|--8------------7-----7-----7-----|

--9------------8-----8-----8-----|--9------------8-----8-----8-----|

--9------------8-----8-----8-----|--9------------8-----8-----8-----|

--7----7-7-7-7-6-----6-----6-----|--7----7-7-7-7-6-----6-----6-----|

---------------------------------|---------------------------------|





|--3--| |--3--|

Q S S S S E E E E E E W

--7------------6-----6-----6-----|--7----------------|

--8------------7-----7-----7-----|--8----------------|

--9------------8-----8-----8-----|--9----------------|

--9------------8-----8-----8-----|--9----------------|

--7----7-7-7-7-6-----6-----6-----|--7----------------|

---------------------------------|-------------------|





|-3-| |-3-| |-3-| |-3-| |-3-| |-3-| |-3-| |-3-|

S S S S S S S S S S S S S S S S S S S S S S S S

--------------------------------------------------|

--------------------------------------------------|

--------------------------------------------------|

--9-----------------------------------------------|

--7-7-7-7-7-7-7-7-7-7-7-7-7-7-7-7-7-7-7-7-7-7-7-7-|

--------------------------------------------------|





|-3-| |-3-| |-3-| |-3-| |--3--| |--3--|

S S S S S S S S S S S S E E E E E E

--------------------------6-----6-----6-----|

--------------------------7-----7-----7-----|

--------------------------8-----8-----8-----|

--------------------------8-----8-----8-----|

--7-7-7-7-7-7-7-7-7-7-7-7-6-----6-----6-----|

--------------------------------------------|





|-3-| |-3-| |-3-| |-3-| |-3-| |-3-| |-3-| |-3-|

S S S S S S S S S S S S S S S S S S S S S S S S

--------------------------------------------------|

--------------------------------------------------|

--------------------------------------------------|

--9-----------------------------------------------|

--7-7-7-7-7-7-7-7-7-7-7-7-7-7-7-7-7-7-7-7-7-7-7-7-|

--------------------------------------------------|





|-3-| |-3-| |-3-| |-3-| |---3--| |---3--|

S S S S S S S S S S S S E E E E E E

---------------------------8------8------8-----|

---------------------------9------9------9-----|

--------------------------10-----10-----10-----|

--------------------------10-----10-----10-----|

--7-7-7-7-7-7-7-7-7-7-7-7--8------8------8-----|

-----------------------------------------------|





|-3-| |-3-| |-3-| |-3-| |-3-| |-3-| |-3-| |-3-|

S S S S S S S S S S S S S S S S S S S S S S S S

--------------------------------------------------|

--------------------------------------------------|

--------------------------------------------------|

--9-----------------------------------------------|

--7-7-7-7-7-7-7-7-7-7-7-7-7-7-7-7-7-7-7-7-7-7-7-7-|

--------------------------------------------------|





|-3-| |-3-| |-3-| |-3-| |--3--| |--3--|

S S S S S S S S S S S S E E E E E E

--------------------------6-----6-----6-----|

--------------------------7-----7-----7-----|

--------------------------8-----8-----8-----|

--------------------------8-----8-----8-----|

--7-7-7-7-7-7-7-7-7-7-7-7-6-----6-----6-----|

--------------------------------------------|





|-3-| |-3-| |-3-| |-3-| |-3-| |-3-| |-3-| |-3-|

S S S S S S S S S S S S S S S S S S S S S S S S

--------------------------------------------------|

--------------------------------------------------|

--------------------------------------------------|

--9-----------------------------------------------|

--7-7-7-7-7-7-7-7-7-7-7-7-7-7-7-7-7-7-7-7-7-7-7-7-|

--------------------------------------------------|





|-3-| |-3-| |-3-| |-3-| |---3--| |---3--|

S S S S S S S S S S S S E E E E E E

---------------------------8------8------8-----|

---------------------------9------9------9-----|

--------------------------10-----10-----10-----|

--------------------------10-----10-----10-----|

--7-7-7-7-7-7-7-7-7-7-7-7--8------8------8-----|

-----------------------------------------------|





|-3-| |-3-| |-3-| |-3-| |-3-| |-3-| |-3-| |-3-|

S S S S S S S S S S S S S S S S S S S S S S S S

--------------------------------------------------|

--------------------------------------------------|

--------------------------------------------------|

--9-----------------------------------------------|

--7-7-7-7-7-7-7-7-7-7-7-7-7-7-7-7-7-7-7-7-7-7-7-7-|

--------------------------------------------------|





|-3-| |-3-| |-3-| |-3-| |--3--| |--3--|

S S S S S S S S S S S S E E E E E E

--------------------------6-----6-----6-----|

--------------------------7-----7-----7-----|

--------------------------8-----8-----8-----|

--------------------------8-----8-----8-----|

--7-7-7-7-7-7-7-7-7-7-7-7-6-----6-----6-----|

--------------------------------------------|





|-3-| |-3-| |-3-| |-3-| |-3-| |-3-| |-3-| |-3-|

S S S S S S S S S S S S S S S S S S S S S S S S

--------------------------------------------------|

--------------------------------------------------|

--------------------------------------------------|

--9-----------------------------------------------|

--7-7-7-7-7-7-7-7-7-7-7-7-7-7-7-7-7-7-7-7-7-7-7-7-|

--------------------------------------------------|





|-3-| |-3-| |-3-| |-3-| |---3--| |---3--|

S S S S S S S S S S S S E E E E E E

---------------------------8------8------8-----|

---------------------------9------9------9-----|

--------------------------10-----10-----10-----|

--------------------------10-----10-----10-----|

--7-7-7-7-7-7-7-7-7-7-7-7--8------8------8-----|

-----------------------------------------------|





|-3-| |-3-| |-3-| |-3-| |-3-| |-3-| |-3-| |-3-|

S S S S S S S S S S S S S S S S S S S S S S S S

--------------------------------------------------|

--------------------------------------------------|

--------------------------------------------------|

--9-----------------------------------------------|

--7-7-7-7-7-7-7-7-7-7-7-7-7-7-7-7-7-7-7-7-7-7-7-7-|

--------------------------------------------------|





|-3-| |-3-| |-3-| |-3-| |--3--| |--3--|

S S S S S S S S S S S S E E E E E E

--------------------------6-----6-----6-----|

--------------------------7-----7-----7-----|

--------------------------8-----8-----8-----|

--------------------------8-----8-----8-----|

--7-7-7-7-7-7-7-7-7-7-7-7-6-----6-----6-----|

--------------------------------------------|





|-3-| |-3-| |-3-| |-3-| |-3-| |-3-| |-3-| |-3-|

S S S S S S S S S S S S S S S S S S S S S S S S

--------------------------------------------------|

--------------------------------------------------|

--------------------------------------------------|

--9-----------------------------------------------|

--7-7-7-7-7-7-7-7-7-7-7-7-7-7-7-7-7-7-7-7-7-7-7-7-|

--------------------------------------------------|





|-3-| |-3-| |-3-| |-3-| |---3--| |---3--|

S S S S S S S S S S S S E E E E E E

---------------------------8------8------8-----|

---------------------------9------9------9-----|

--------------------------10-----10-----10-----|

--------------------------10-----10-----10-----|

--7-7-7-7-7-7-7-7-7-7-7-7--8------8------8-----|

-----------------------------------------------|





|-3-| |-3-| |-3-| |-3-| |--3--| |--3--| |-3-| |-3-|

S S S S S S S S S S S S S S S S S S S S S S S S

--------------------------------------------------------|

--------------------------------------------------------|

--------------------------------------------------------|

--------------------------------------------------------|

--------------7-7-7-7-7-7-10-10-10-10-10-10-7-7-7-7-7-7-|

--0-0-0-0-0-0-------------------------------------------|





|-3-| |-3-| |-3-| |-3-| |-3-| |-3-| |-3-| |-3-|

S S S S S S S S S S S S S S S S S S S S S S S S

--------------------------------------------------|

--------------------------------------------------|

--------------------------------------------------|

--------------------------8-8-8-8-8-8-------------|

--------------9-9-9-9-9-9-------------9-9-9-9-9-9-|

--6-6-6-6-6-6-------------------------------------|





|-3-| |-3-| |-3-| |-3-| |--3--| |--3--| |-3-| |-3-|

S S S S S S S S S S S S S S S S S S S S S S S S

--------------------------------------------------------|

--------------------------------------------------------|

--------------------------------------------------------|

--------------------------------------------------------|

--------------7-7-7-7-7-7-10-10-10-10-10-10-7-7-7-7-7-7-|

--0-0-0-0-0-0-------------------------------------------|





|--3--| |--3--| |-3-| |-3-| |-3-| |-3-| |-3-| |-3-|

S S S S S S S S S S S S S S S S S S S S S S S S

--------------------------------------------------------|

--------------------------------------------------------|

--------------------------------------------------------|

--10-10-10-10-10-10-9-9-9-9-9-9-7-7-7-7-7-7-9-9-9-9-9-9-|

--------------------------------------------------------|

--------------------------------------------------------|





|-3-| |-3-| |-3-| |-3-| |--3--| |--3--| |-3-| |-3-|

S S S S S S S S S S S S S S S S S S S S S S S S

--------------------------------------------------------|

--------------------------------------------------------|

--------------------------------------------------------|

--------------------------------------------------------|

--------------7-7-7-7-7-7-10-10-10-10-10-10-7-7-7-7-7-7-|

--0-0-0-0-0-0-------------------------------------------|





|-3-| |-3-| |-3-| |-3-| |-3-| |-3-| |-3-| |-3-|

S S S S S S S S S S S S S S S S S S S S S S S S

--------------------------------------------------|

--------------------------------------------------|

--------------------------------------------------|

--------------------------8-8-8-8-8-8-------------|

--------------9-9-9-9-9-9-------------9-9-9-9-9-9-|

--6-6-6-6-6-6-------------------------------------|





|-3-| |-3-| |-3-| |-3-| |--3--| |--3--| |-3-| |-3-|

S S S S S S S S S S S S S S S S S S S S S S S S

--------------------------------------------------------|

--------------------------------------------------------|

--------------------------------------------------------|

--------------------------------------------------------|

--------------7-7-7-7-7-7-10-10-10-10-10-10-7-7-7-7-7-7-|

--0-0-0-0-0-0-------------------------------------------|





|--3--| |--3--| |-3-| |-3-| |-3-| |-3-| |-3-| |-3-|

S S S S S S S S S S S S S S S S S S S S S S S S

--------------------------------------------------------|

--------------------------------------------------------|

--------------------------------------------------------|

--10-10-10-10-10-10-9-9-9-9-9-9-7-7-7-7-7-7-9-9-9-9-9-9-|

--------------------------------------------------------|

--------------------------------------------------------|





|-3-| |-3-| |-3-| |-3-| |--3--| |--3--| |-3-| |-3-|

S S S S S S S S S S S S S S S S S S S S S S S S

--------------------------------------------------------|

--------------------------------------------------------|

--------------------------------------------------------|

--------------------------------------------------------|

--------------7-7-7-7-7-7-10-10-10-10-10-10-7-7-7-7-7-7-|

--0-0-0-0-0-0-------------------------------------------|





|-3-| |-3-| |-3-| |-3-| |-3-| |-3-| |-3-| |-3-|

S S S S S S S S S S S S S S S S S S S S S S S S

--------------------------------------------------|

--------------------------------------------------|

--------------------------------------------------|

--------------------------8-8-8-8-8-8-------------|

--------------9-9-9-9-9-9-------------9-9-9-9-9-9-|

--6-6-6-6-6-6-------------------------------------|





|-3-| |-3-| |-3-| |-3-| |--3--| |--3--| |-3-| |-3-|

S S S S S S S S S S S S S S S S S S S S S S S S

--------------------------------------------------------|

--------------------------------------------------------|

--------------------------------------------------------|

--------------------------------------------------------|

--------------7-7-7-7-7-7-10-10-10-10-10-10-7-7-7-7-7-7-|

--0-0-0-0-0-0-------------------------------------------|





|--3--| |--3--| |-3-| |-3-| |-3-| |-3-| |-3-| |-3-|

S S S S S S S S S S S S S S S S S S S S S S S S

--------------------------------------------------------|

--------------------------------------------------------|

--------------------------------------------------------|

--10-10-10-10-10-10-9-9-9-9-9-9-7-7-7-7-7-7-9-9-9-9-9-9-|

--------------------------------------------------------|

--------------------------------------------------------|





|-3-| |-3-| |-3-| |-3-| |--3--| |--3--| |-3-| |-3-|

S S S S S S S S S S S S S S S S S S S S S S S S

--------------------------------------------------------|

--------------------------------------------------------|

--------------------------------------------------------|

--------------------------------------------------------|

--------------7-7-7-7-7-7-10-10-10-10-10-10-7-7-7-7-7-7-|

--0-0-0-0-0-0-------------------------------------------|





|-3-| |-3-| |-3-| |-3-| |-3-| |-3-| |-3-| |-3-|

S S S S S S S S S S S S S S S S S S S S S S S S

--------------------------------------------------|

--------------------------------------------------|

--------------------------------------------------|

--------------------------8-8-8-8-8-8-------------|

--------------9-9-9-9-9-9-------------9-9-9-9-9-9-|

--6-6-6-6-6-6-------------------------------------|





|-3-| |-3-| |-3-| |-3-| |--3--| |--3--| |-3-| |-3-|

S S S S S S S S S S S S S S S S S S S S S S S S

--------------------------------------------------------|

--------------------------------------------------------|

--------------------------------------------------------|

--------------------------------------------------------|

--------------7-7-7-7-7-7-10-10-10-10-10-10-7-7-7-7-7-7-|

--0-0-0-0-0-0-------------------------------------------|





|--3--| |--3--| |-3-| |-3-| |-3-| |-3-| |-3-| |-3-|

S S S S S S S S S S S S S S S S S S S S S S S S

--------------------------------------------------------|

--------------------------------------------------------|

--------------------------------------------------------|

--10-10-10-10-10-10-9-9-9-9-9-9-7-7-7-7-7-7-9-9-9-9-9-9-|

--------------------------------------------------------|

--------------------------------------------------------|





|-3-| |-3-| |-3-| |-3-| |--3--| |--3--| |-3-| |-3-|

S S S S S S S S S S S S S S S S S S S S S S S S

--------------------------------------------------------|

--------------------------------------------------------|

--------------------------------------------------------|

--------------------------------------------------------|

--------------7-7-7-7-7-7-10-10-10-10-10-10-7-7-7-7-7-7-|

--0-0-0-0-0-0-------------------------------------------|





|-3-| |-3-| |-3-| |-3-| |-3-| |-3-| |-3-| |-3-|

S S S S S S S S S S S S S S S S S S S S S S S S

--------------------------------------------------|

--------------------------------------------------|

--------------------------------------------------|

--------------------------8-8-8-8-8-8-------------|

--------------9-9-9-9-9-9-------------9-9-9-9-9-9-|

--6-6-6-6-6-6-------------------------------------|





|-3-| |-3-| |-3-| |-3-| |--3--| |--3--| |-3-| |-3-|

S S S S S S S S S S S S S S S S S S S S S S S S

--------------------------------------------------------|

--------------------------------------------------------|

--------------------------------------------------------|

--------------------------------------------------------|

--------------7-7-7-7-7-7-10-10-10-10-10-10-7-7-7-7-7-7-|

--0-0-0-0-0-0-------------------------------------------|





|--3--| |--3--| |-3-| |-3-| |-3-| |-3-| |-3-| |-3-|

S S S S S S S S S S S S S S S S S S S S S S S S

--------------------------------------------------------|

--------------------------------------------------------|

--------------------------------------------------------|

--10-10-10-10-10-10-9-9-9-9-9-9-7-7-7-7-7-7-9-9-9-9-9-9-|

--------------------------------------------------------|

--------------------------------------------------------|





|-3-| |-3-| |-3-| |-3-| |--3--| |--3--| |-3-| |-3-|

S S S S S S S S S S S S S S S S S S S S S S S S

--------------------------------------------------------|

--------------------------------------------------------|

--------------------------------------------------------|

--------------------------------------------------------|

--------------7-7-7-7-7-7-10-10-10-10-10-10-7-7-7-7-7-7-|

--0-0-0-0-0-0-------------------------------------------|





|-3-| |-3-| |-3-| |-3-| |-3-| |-3-| |-3-| |-3-|

S S S S S S S S S S S S S S S S S S S S S S S S

--------------------------------------------------|

--------------------------------------------------|

--------------------------------------------------|

--------------------------8-8-8-8-8-8-------------|

--------------9-9-9-9-9-9-------------9-9-9-9-9-9-|

--6-6-6-6-6-6-------------------------------------|





|-3-| |-3-| |-3-| |-3-| |--3--| |--3--| |-3-| |-3-|

S S S S S S S S S S S S S S S S S S S S S S S S

--------------------------------------------------------|

--------------------------------------------------------|

--------------------------------------------------------|

--------------------------------------------------------|

--------------7-7-7-7-7-7-10-10-10-10-10-10-7-7-7-7-7-7-|

--0-0-0-0-0-0-------------------------------------------|





|--3--| |--3--| |-3-| |-3-| |-3-| |-3-| |-3-| |-3-|

S S S S S S S S S S S S S S S S S S S S S S S S

--------------------------------------------------------|

--------------------------------------------------------|

--------------------------------------------------------|

--10-10-10-10-10-10-9-9-9-9-9-9-7-7-7-7-7-7-9-9-9-9-9-9-|

--------------------------------------------------------|

--------------------------------------------------------|





|-3-| |-3-| |-3-| |-3-| |-3-| |-3-| |-3-| |-3-|

S S S S S S S S S S S S S S S S S S S S S S S S

--------------------------------------------------|

--------------------------------------------------|

--------------------------------------------------|

--------------------------------------------------|

--------------8-8-8-8-8-8-7-7-7-7-7-7-8-8-8-8-8-8-|

--5-5-5-5-5-5-------------------------------------|





|-3-| |-3-| |-3-| |-3-| |-3-| |-3-| |-3-| |-3-|

S S S S S S S S S S S S S S S S S S S S S S S S

--------------------------------------------------|

--------------------------------------------------|

--------------------------------------------------|

--------------------------------------------------|

--------------6-6-6-6-6-6-7-7-7-7-7-7-6-6-6-6-6-6-|

--4-4-4-4-4-4-------------------------------------|





|-3-| |-3-| |-3-| |-3-| |-3-| |-3-| |-3-| |-3-|

S S S S S S S S S S S S S S S S S S S S S S S S

--------------------------------------------------|

--------------------------------------------------|

--------------------------------------------------|

--------------------------------------------------|

--------------8-8-8-8-8-8-7-7-7-7-7-7-8-8-8-8-8-8-|

--5-5-5-5-5-5-------------------------------------|





|-3-| |-3-| |-3-| |-3-| |-3-| |-3-| |-3-| |-3-|

S S S S S S S S S S S S S S S S S S S S S S S S

--------------------------------------------------|

--------------------------------------------------|

--------------------------------------------------|

--------------------------------------------------|

--------------6-6-6-6-6-6-7-7-7-7-7-7-6-6-6-6-6-6-|

--4-4-4-4-4-4-------------------------------------|





|-3-| |-3-| |-3-| |-3-| |-3-| |-3-| |-3-| |-3-|

S S S S S S S S S S S S S S S S S S S S S S S S

--------------------------------------------------|

--------------------------------------------------|

--------------------------------------------------|

--------------------------------------------------|

--------------8-8-8-8-8-8-7-7-7-7-7-7-8-8-8-8-8-8-|

--5-5-5-5-5-5-------------------------------------|





|-3-| |-3-| |-3-| |-3-| |-3-| |-3-| |-3-| |-3-|

S S S S S S S S S S S S S S S S S S S S S S S S

--------------------------------------------------|

--------------------------------------------------|

--------------------------------------------------|

--------------------------------------------------|

--------------6-6-6-6-6-6-7-7-7-7-7-7-6-6-6-6-6-6-|

--4-4-4-4-4-4-------------------------------------|





|-3-| |-3-| |-3-| |-3-| |-3-| |-3-| |-3-| |-3-|

S S S S S S S S S S S S S S S S S S S S S S S S

--------------------------------------------------|

--------------------------------------------------|

--------------------------------------------------|

--------------------------------------------------|

--------------8-8-8-8-8-8-7-7-7-7-7-7-8-8-8-8-8-8-|

--5-5-5-5-5-5-------------------------------------|





|-3-| |-3-| |-3-| |-3-| |-3-| |-3-| |-3-| |-3-|

S S S S S S S S S S S S S S S S S S S S S S S S W

--------------------------------------------------|-------------------|

--------------------------------------------------|-------------------|

--------------------------------------------------|-------------------|

--------------------------------------------------|--2----------------|

--------------6-6-6-6-6-6-7-7-7-7-7-7-6-6-6-6-6-6-|--2----------------|

--4-4-4-4-4-4-------------------------------------|--0----------------|





W W W W

-------------------|-------------------|-------------------|-------------------|

-------------------|-------------------|-------------------|-------------------|

-------------------|-------------------|-------------------|-------------------|

--5----------------|-------------------|-------------------|--2----------------|

--3----------------|--6----------------|--9----------------|--2----------------|

-------------------|--4----------------|--7----------------|--0----------------|





W W W W

-------------------|-------------------|-------------------|-------------------|

-------------------|-------------------|-------------------|-------------------|

-------------------|-------------------|-------------------|-------------------|

--5----------------|-------------------|-------------------|--2----------------|

--3----------------|--6----------------|--9----------------|--2----------------|

-------------------|--4----------------|--7----------------|--0----------------|





W W W W

-------------------|-------------------|-------------------|-------------------|

-------------------|-------------------|-------------------|-------------------|

-------------------|-------------------|-------------------|-------------------|

--5----------------|-------------------|-------------------|--2----------------|

--3----------------|--6----------------|--9----------------|--2----------------|

-------------------|--4----------------|--7----------------|--0----------------|





W W Q E E E E E E

-------------------|-------------------|-------------------------|

-------------------|-------------------|-------------------------|

-------------------|-------------------|-------------------------|

--5----------------|-------------------|-------------------------|

--3----------------|--6----------------|--9----------------------|

-------------------|--4----------------|--7----------------------|





|-3-| |-3-| |-3-| |-3-| |-3-| |-3-| |-3-| |-3-|

S S S S S S S S S S S S S S S S S S S S S S S S

--------------------------------------------------|

--------------------------------------------------|

--------------------------------------------------|

--9-----------------------------------------------|

--7-7-7-7-7-7-7-7-7-7-7-7-7-7-7-7-7-7-7-7-7-7-7-7-|

--------------------------------------------------|





|-3-| |-3-| |-3-| |-3-| |--3--| |--3--|

S S S S S S S S S S S S E E E E E E

--------------------------6-----6-----6-----|

--------------------------7-----7-----7-----|

--------------------------8-----8-----8-----|

--------------------------8-----8-----8-----|

--7-7-7-7-7-7-7-7-7-7-7-7-6-----6-----6-----|

--------------------------------------------|





|-3-| |-3-| |-3-| |-3-| |-3-| |-3-| |-3-| |-3-|

S S S S S S S S S S S S S S S S S S S S S S S S

--------------------------------------------------|

--------------------------------------------------|

--------------------------------------------------|

--9-----------------------------------------------|

--7-7-7-7-7-7-7-7-7-7-7-7-7-7-7-7-7-7-7-7-7-7-7-7-|

--------------------------------------------------|





|-3-| |-3-| |-3-| |-3-| |---3--| |---3--|

S S S S S S S S S S S S E E E E E E

---------------------------8------8------8-----|

---------------------------9------9------9-----|

--------------------------10-----10-----10-----|

--------------------------10-----10-----10-----|

--7-7-7-7-7-7-7-7-7-7-7-7--8------8------8-----|

-----------------------------------------------|





|-3-| |-3-| |-3-| |-3-| |-3-| |-3-| |-3-| |-3-|

S S S S S S S S S S S S S S S S S S S S S S S S

--------------------------------------------------|

--------------------------------------------------|

--------------------------------------------------|

--9-----------------------------------------------|

--7-7-7-7-7-7-7-7-7-7-7-7-7-7-7-7-7-7-7-7-7-7-7-7-|

--------------------------------------------------|





|-3-| |-3-| |-3-| |-3-| |--3--| |--3--|

S S S S S S S S S S S S E E E E E E

--------------------------6-----6-----6-----|

--------------------------7-----7-----7-----|

--------------------------8-----8-----8-----|

--------------------------8-----8-----8-----|

--7-7-7-7-7-7-7-7-7-7-7-7-6-----6-----6-----|

--------------------------------------------|





|-3-| |-3-| |-3-| |-3-| |-3-| |-3-| |-3-| |-3-|

S S S S S S S S S S S S S S S S S S S S S S S S

--------------------------------------------------|

--------------------------------------------------|

--------------------------------------------------|

--9-----------------------------------------------|

--7-7-7-7-7-7-7-7-7-7-7-7-7-7-7-7-7-7-7-7-7-7-7-7-|

--------------------------------------------------|





|-3-| |-3-| |-3-| |-3-| |---3--| |---3--|

S S S S S S S S S S S S E E E E E E

---------------------------8------8------8-----|

---------------------------9------9------9-----|

--------------------------10-----10-----10-----|

--------------------------10-----10-----10-----|

--7-7-7-7-7-7-7-7-7-7-7-7--8------8------8-----|

-----------------------------------------------|





|-3-| |-3-| |-3-| |-3-| |-3-| |-3-| |-3-| |-3-|

S S S S S S S S S S S S S S S S S S S S S S S S

--------------------------------------------------|

--------------------------------------------------|

--------------------------------------------------|

--9-----------------------------------------------|

--7-7-7-7-7-7-7-7-7-7-7-7-7-7-7-7-7-7-7-7-7-7-7-7-|

--------------------------------------------------|





|-3-| |-3-| |-3-| |-3-| |--3--| |--3--|

S S S S S S S S S S S S E E E E E E

--------------------------6-----6-----6-----|

--------------------------7-----7-----7-----|

--------------------------8-----8-----8-----|

--------------------------8-----8-----8-----|

--7-7-7-7-7-7-7-7-7-7-7-7-6-----6-----6-----|

--------------------------------------------|





|-3-| |-3-| |-3-| |-3-| |-3-| |-3-| |-3-| |-3-|

S S S S S S S S S S S S S S S S S S S S S S S S

--------------------------------------------------|

--------------------------------------------------|

--------------------------------------------------|

--9-----------------------------------------------|

--7-7-7-7-7-7-7-7-7-7-7-7-7-7-7-7-7-7-7-7-7-7-7-7-|

--------------------------------------------------|





|-3-| |-3-| |-3-| |-3-| |---3--| |---3--|

S S S S S S S S S S S S E E E E E E

---------------------------8------8------8-----|

---------------------------9------9------9-----|

--------------------------10-----10-----10-----|

--------------------------10-----10-----10-----|

--7-7-7-7-7-7-7-7-7-7-7-7--8------8------8-----|

-----------------------------------------------|





|-3-| |-3-| |-3-| |-3-| |-3-| |-3-| |-3-| |-3-|

S S S S S S S S S S S S S S S S S S S S S S S S

--------------------------------------------------|

--------------------------------------------------|

--------------------------------------------------|

--9-----------------------------------------------|

--7-7-7-7-7-7-7-7-7-7-7-7-7-7-7-7-7-7-7-7-7-7-7-7-|

--------------------------------------------------|





|-3-| |-3-| |-3-| |-3-| |--3--| |--3--|

S S S S S S S S S S S S E E E E E E

--------------------------6-----6-----6-----|

--------------------------7-----7-----7-----|

--------------------------8-----8-----8-----|

--------------------------8-----8-----8-----|

--7-7-7-7-7-7-7-7-7-7-7-7-6-----6-----6-----|

--------------------------------------------|





|-3-| |-3-| |-3-| |-3-| |-3-| |-3-| |-3-| |-3-|

S S S S S S S S S S S S S S S S S S S S S S S S

--------------------------------------------------|

--------------------------------------------------|

--------------------------------------------------|

--9-----------------------------------------------|

--7-7-7-7-7-7-7-7-7-7-7-7-7-7-7-7-7-7-7-7-7-7-7-7-|

--------------------------------------------------|





|-3-| |-3-| |-3-| |-3-| |---3--| |---3--|

S S S S S S S S S S S S E E E E E E

---------------------------8------8------8-----|

---------------------------9------9------9-----|

--------------------------10-----10-----10-----|

--------------------------10-----10-----10-----|

--7-7-7-7-7-7-7-7-7-7-7-7--8------8------8-----|

-----------------------------------------------|





|-3-| |-3-| |-3-| |-3-| |--3--| |--3--| |-3-| |-3-|

S S S S S S S S S S S S S S S S S S S S S S S S

--------------------------------------------------------|

--------------------------------------------------------|

--------------------------------------------------------|

--------------------------------------------------------|

--------------7-7-7-7-7-7-10-10-10-10-10-10-7-7-7-7-7-7-|

--0-0-0-0-0-0-------------------------------------------|





|-3-| |-3-| |-3-| |-3-| |-3-| |-3-| |-3-| |-3-|

S S S S S S S S S S S S S S S S S S S S S S S S

--------------------------------------------------|

--------------------------------------------------|

--------------------------------------------------|

--------------------------8-8-8-8-8-8-------------|

--------------9-9-9-9-9-9-------------9-9-9-9-9-9-|

--6-6-6-6-6-6-------------------------------------|





|-3-| |-3-| |-3-| |-3-| |--3--| |--3--| |-3-| |-3-|

S S S S S S S S S S S S S S S S S S S S S S S S

--------------------------------------------------------|

--------------------------------------------------------|

--------------------------------------------------------|

--------------------------------------------------------|

--------------7-7-7-7-7-7-10-10-10-10-10-10-7-7-7-7-7-7-|

--0-0-0-0-0-0-------------------------------------------|





|--3--| |--3--| |-3-| |-3-| |-3-| |-3-| |-3-| |-3-|

S S S S S S S S S S S S S S S S S S S S S S S S

--------------------------------------------------------|

--------------------------------------------------------|

--------------------------------------------------------|

--10-10-10-10-10-10-9-9-9-9-9-9-7-7-7-7-7-7-9-9-9-9-9-9-|

--------------------------------------------------------|

--------------------------------------------------------|





|-3-| |-3-| |-3-| |-3-| |--3--| |--3--| |-3-| |-3-|

S S S S S S S S S S S S S S S S S S S S S S S S

--------------------------------------------------------|

--------------------------------------------------------|

--------------------------------------------------------|

--------------------------------------------------------|

--------------7-7-7-7-7-7-10-10-10-10-10-10-7-7-7-7-7-7-|

--0-0-0-0-0-0-------------------------------------------|





|-3-| |-3-| |-3-| |-3-| |-3-| |-3-| |-3-| |-3-|

S S S S S S S S S S S S S S S S S S S S S S S S

--------------------------------------------------|

--------------------------------------------------|

--------------------------------------------------|

--------------------------8-8-8-8-8-8-------------|

--------------9-9-9-9-9-9-------------9-9-9-9-9-9-|

--6-6-6-6-6-6-------------------------------------|





|-3-| |-3-| |-3-| |-3-| |--3--| |--3--| |-3-| |-3-|

S S S S S S S S S S S S S S S S S S S S S S S S

--------------------------------------------------------|

--------------------------------------------------------|

--------------------------------------------------------|

--------------------------------------------------------|

--------------7-7-7-7-7-7-10-10-10-10-10-10-7-7-7-7-7-7-|

--0-0-0-0-0-0-------------------------------------------|





|--3--| |--3--| |-3-| |-3-| |-3-| |-3-| |-3-| |-3-|

S S S S S S S S S S S S S S S S S S S S S S S S

--------------------------------------------------------|

--------------------------------------------------------|

--------------------------------------------------------|

--10-10-10-10-10-10-9-9-9-9-9-9-7-7-7-7-7-7-9-9-9-9-9-9-|

--------------------------------------------------------|

--------------------------------------------------------|





|-3-| |-3-| |-3-| |-3-| |--3--| |--3--| |-3-| |-3-|

S S S S S S S S S S S S S S S S S S S S S S S S

--------------------------------------------------------|

--------------------------------------------------------|

--------------------------------------------------------|

--------------------------------------------------------|

--------------7-7-7-7-7-7-10-10-10-10-10-10-7-7-7-7-7-7-|

--0-0-0-0-0-0-------------------------------------------|





|-3-| |-3-| |-3-| |-3-| |-3-| |-3-| |-3-| |-3-|

S S S S S S S S S S S S S S S S S S S S S S S S

--------------------------------------------------|

--------------------------------------------------|

--------------------------------------------------|

--------------------------8-8-8-8-8-8-------------|

--------------9-9-9-9-9-9-------------9-9-9-9-9-9-|

--6-6-6-6-6-6-------------------------------------|





|-3-| |-3-| |-3-| |-3-| |--3--| |--3--| |-3-| |-3-|

S S S S S S S S S S S S S S S S S S S S S S S S

--------------------------------------------------------|

--------------------------------------------------------|

--------------------------------------------------------|

--------------------------------------------------------|

--------------7-7-7-7-7-7-10-10-10-10-10-10-7-7-7-7-7-7-|

--0-0-0-0-0-0-------------------------------------------|





|--3--| |--3--| |-3-| |-3-| |-3-| |-3-| |-3-| |-3-|

S S S S S S S S S S S S S S S S S S S S S S S S

--------------------------------------------------------|

--------------------------------------------------------|

--------------------------------------------------------|

--10-10-10-10-10-10-9-9-9-9-9-9-7-7-7-7-7-7-9-9-9-9-9-9-|

--------------------------------------------------------|

--------------------------------------------------------|





|-3-| |-3-| |-3-| |-3-| |--3--| |--3--| |-3-| |-3-|

S S S S S S S S S S S S S S S S S S S S S S S S

--------------------------------------------------------|

--------------------------------------------------------|

--------------------------------------------------------|

--------------------------------------------------------|

--------------7-7-7-7-7-7-10-10-10-10-10-10-7-7-7-7-7-7-|

--0-0-0-0-0-0-------------------------------------------|





|-3-| |-3-| |-3-| |-3-| |-3-| |-3-| |-3-| |-3-|

S S S S S S S S S S S S S S S S S S S S S S S S

--------------------------------------------------|

--------------------------------------------------|

--------------------------------------------------|

--------------------------8-8-8-8-8-8-------------|

--------------9-9-9-9-9-9-------------9-9-9-9-9-9-|

--6-6-6-6-6-6-------------------------------------|





|-3-| |-3-| |-3-| |-3-| |--3--| |--3--| |-3-| |-3-|

S S S S S S S S S S S S S S S S S S S S S S S S

--------------------------------------------------------|

--------------------------------------------------------|

--------------------------------------------------------|

--------------------------------------------------------|

--------------7-7-7-7-7-7-10-10-10-10-10-10-7-7-7-7-7-7-|

--0-0-0-0-0-0-------------------------------------------|





|--3--| |--3--| |-3-| |-3-| |-3-| |-3-| |-3-| |-3-|

S S S S S S S S S S S S S S S S S S S S S S S S

--------------------------------------------------------|

--------------------------------------------------------|

--------------------------------------------------------|

--10-10-10-10-10-10-9-9-9-9-9-9-7-7-7-7-7-7-9-9-9-9-9-9-|

--------------------------------------------------------|

--------------------------------------------------------|





|-3-| |-3-| |-3-| |-3-| |--3--| |--3--| |-3-| |-3-|

S S S S S S S S S S S S S S S S S S S S S S S S

--------------------------------------------------------|

--------------------------------------------------------|

--------------------------------------------------------|

--------------------------------------------------------|

--------------7-7-7-7-7-7-10-10-10-10-10-10-7-7-7-7-7-7-|

--0-0-0-0-0-0-------------------------------------------|





|-3-| |-3-| |-3-| |-3-| |-3-| |-3-| |-3-| |-3-|

S S S S S S S S S S S S S S S S S S S S S S S S

--------------------------------------------------|

--------------------------------------------------|

--------------------------------------------------|

--------------------------8-8-8-8-8-8-------------|

--------------9-9-9-9-9-9-------------9-9-9-9-9-9-|

--6-6-6-6-6-6-------------------------------------|





|-3-| |-3-| |-3-| |-3-| |--3--| |--3--| |-3-| |-3-|

S S S S S S S S S S S S S S S S S S S S S S S S

--------------------------------------------------------|

--------------------------------------------------------|

--------------------------------------------------------|

--------------------------------------------------------|

--------------7-7-7-7-7-7-10-10-10-10-10-10-7-7-7-7-7-7-|

--0-0-0-0-0-0-------------------------------------------|





|--3--| |--3--| |-3-| |-3-| |-3-| |-3-| |-3-| |-3-|

S S S S S S S S S S S S S S S S S S S S S S S S

--------------------------------------------------------|

--------------------------------------------------------|

--------------------------------------------------------|

--10-10-10-10-10-10-9-9-9-9-9-9-7-7-7-7-7-7-9-9-9-9-9-9-|

--------------------------------------------------------|

--------------------------------------------------------|





|-3-| |-3-| |-3-| |-3-| |--3--| |--3--| |-3-| |-3-|

S S S S S S S S S S S S S S S S S S S S S S S S

--------------------------------------------------------|

--------------------------------------------------------|

--------------------------------------------------------|

--------------------------------------------------------|

--------------7-7-7-7-7-7-10-10-10-10-10-10-7-7-7-7-7-7-|

--0-0-0-0-0-0-------------------------------------------|





|-3-| |-3-| |-3-| |-3-| |-3-| |-3-| |-3-| |-3-|

S S S S S S S S S S S S S S S S S S S S S S S S

--------------------------------------------------|

--------------------------------------------------|

--------------------------------------------------|

--------------------------8-8-8-8-8-8-------------|

--------------9-9-9-9-9-9-------------9-9-9-9-9-9-|

--6-6-6-6-6-6-------------------------------------|





|-3-| |-3-| |-3-| |-3-| |--3--| |--3--| |-3-| |-3-|

S S S S S S S S S S S S S S S S S S S S S S S S

--------------------------------------------------------|

--------------------------------------------------------|

--------------------------------------------------------|

--------------------------------------------------------|

--------------7-7-7-7-7-7-10-10-10-10-10-10-7-7-7-7-7-7-|

--0-0-0-0-0-0-------------------------------------------|





|--3--| |--3--| |-3-| |-3-| |-3-| |-3-| |-3-| |-3-|

S S S S S S S S S S S S S S S S S S S S S S S S

--------------------------------------------------------|

--------------------------------------------------------|

--------------------------------------------------------|

--10-10-10-10-10-10-9-9-9-9-9-9-7-7-7-7-7-7-9-9-9-9-9-9-|

--------------------------------------------------------|

--------------------------------------------------------|





|-3-| |-3-| |-3-| |-3-| |-3-| |-3-| |-3-| |-3-|

S S S S S S S S S S S S S S S S S S S S S S S S

--------------------------------------------------|

--------------------------------------------------|

--------------------------------------------------|

--------------------------------------------------|

--------------8-8-8-8-8-8-7-7-7-7-7-7-8-8-8-8-8-8-|

--5-5-5-5-5-5-------------------------------------|





|-3-| |-3-| |-3-| |-3-| |-3-| |-3-| |-3-| |-3-|

S S S S S S S S S S S S S S S S S S S S S S S S

--------------------------------------------------|

--------------------------------------------------|

--------------------------------------------------|

--------------------------------------------------|

--------------6-6-6-6-6-6-7-7-7-7-7-7-6-6-6-6-6-6-|

--4-4-4-4-4-4-------------------------------------|





|-3-| |-3-| |-3-| |-3-| |-3-| |-3-| |-3-| |-3-|

S S S S S S S S S S S S S S S S S S S S S S S S

--------------------------------------------------|

--------------------------------------------------|

--------------------------------------------------|

--------------------------------------------------|

--------------8-8-8-8-8-8-7-7-7-7-7-7-8-8-8-8-8-8-|

--5-5-5-5-5-5-------------------------------------|





|-3-| |-3-| |-3-| |-3-| |-3-| |-3-| |-3-| |-3-|

S S S S S S S S S S S S S S S S S S S S S S S S

--------------------------------------------------|

--------------------------------------------------|

--------------------------------------------------|

--------------------------------------------------|

--------------6-6-6-6-6-6-7-7-7-7-7-7-6-6-6-6-6-6-|

--4-4-4-4-4-4-------------------------------------|





|-3-| |-3-| |-3-| |-3-| |-3-| |-3-| |-3-| |-3-|

S S S S S S S S S S S S S S S S S S S S S S S S

--------------------------------------------------|

--------------------------------------------------|

--------------------------------------------------|

--------------------------------------------------|

--------------8-8-8-8-8-8-7-7-7-7-7-7-8-8-8-8-8-8-|

--5-5-5-5-5-5-------------------------------------|





|-3-| |-3-| |-3-| |-3-| |-3-| |-3-| |-3-| |-3-|

S S S S S S S S S S S S S S S S S S S S S S S S

--------------------------------------------------|

--------------------------------------------------|

--------------------------------------------------|

--------------------------------------------------|

--------------6-6-6-6-6-6-7-7-7-7-7-7-6-6-6-6-6-6-|

--4-4-4-4-4-4-------------------------------------|





|-3-| |-3-| |-3-| |-3-| |-3-| |-3-| |-3-| |-3-|

S S S S S S S S S S S S S S S S S S S S S S S S

--------------------------------------------------|

--------------------------------------------------|

--------------------------------------------------|

--------------------------------------------------|

--------------8-8-8-8-8-8-7-7-7-7-7-7-8-8-8-8-8-8-|

--5-5-5-5-5-5-------------------------------------|





|-3-| |-3-| |-3-| |-3-| |-3-| |-3-| |-3-| |-3-|

S S S S S S S S S S S S S S S S S S S S S S S S W

--------------------------------------------------|-------------------|

--------------------------------------------------|-------------------|

--------------------------------------------------|-------------------|

--------------------------------------------------|--2----------------|

--------------6-6-6-6-6-6-7-7-7-7-7-7-6-6-6-6-6-6-|--2----------------|

--4-4-4-4-4-4-------------------------------------|--0----------------|





W W W W

-------------------|-------------------|-------------------|-------------------|

-------------------|-------------------|-------------------|-------------------|

-------------------|-------------------|-------------------|-------------------|

--5----------------|-------------------|-------------------|--2----------------|

--3----------------|--6----------------|--9----------------|--2----------------|

-------------------|--4----------------|--7----------------|--0----------------|





W W W W

-------------------|-------------------|-------------------|-------------------|

-------------------|-------------------|-------------------|-------------------|

-------------------|-------------------|-------------------|-------------------|

--5----------------|-------------------|-------------------|--2----------------|

--3----------------|--6----------------|--9----------------|--2----------------|

-------------------|--4----------------|--7----------------|--0----------------|





W W W W

-------------------|-------------------|-------------------|-------------------|

-------------------|-------------------|-------------------|-------------------|

-------------------|-------------------|-------------------|-------------------|

--5----------------|-------------------|-------------------|--2----------------|

--3----------------|--6----------------|--9----------------|--2----------------|

-------------------|--4----------------|--7----------------|--0----------------|





W W Q E E E E E E

-------------------|-------------------|-------------------------||

-------------------|-------------------|-------------------------||

-------------------|-------------------|-------------------------||

--5----------------|-------------------|-------------------------||

--3----------------|--6----------------|--9----------------------||

-------------------|--4----------------|--7----------------------||









Duration Legend

---------------

W - whole

H - half

Q - quarter

E - 8th

S - 16th

T - 32nd

X - 64th

. - note dotted

|-n-| - n-tuplets





Tablature Legend

----------------

L - tied note

x - dead note

g - grace note

(n) - ghost note

> - accentuded note

NH - natural harmonic

AH - artificial harmonic

TH - tapped harmonic

SH - semi harmonic

PH - pitch harmonic

h - hammer on

p - pull off

b - bend

br - bendRelease

pb - preBend

pbr - preBendRelease

brb - bendReleaseBend


/ - tremolo bar dip


- tremolo bar dive

-/n - tremolo bar Release up

/n\ - tremolo bar inverted dip

/n - tremolo bar return

-
- tremolo bar Release down

S - shift slide

s - legato slide

/ - slide into from below or out of upwards

\ - slide into from above or out of downwards

~ - vibrato

W - wide vibrato

tr - trill

TP - tremolo picking

T - tapping

S - slap

P - pop

Added by tabs-database.com and our distinguished partners
Get this song at amazon.com      Ebay     Ringtones Ringtones  


Learn to play: Songwriting, Piano, Harmonica, Guitar

Related Misc Unsigned Bands Tabs

Sand Spider - Honky Tonk tabs
Cagardner - Tiptoe To Your Death tabs
We Fall Short - More Like You tabs
This Side Up - Romance In The Air tabs
Duckbomb - Hole In My Head Bass tabs
The Vespas - You Said The Reason - Intro tabs
Social Impact - Screwing With My Mind tabs
I Just Wanna - The Whit Hendrix-dylan Berry tabs
Every Step Every Breath - Alphazordon tabs
Spider - Relaku Pujuk tabs
Suffer What Was - Woody tabs
Classmate 67 - Untitled tabs
Dystopia - George And Saddam Dont Get Along tabs
Boy Elroy - A Better Place tabs
An Endless Sporadic - Sun Of Pearl tabs
Mysteria - Mysteria tabs
Some Kind Of Hero - My Song tabs
Underdosed - Hope tabs
Crimson Heads - Punk Rock Martyr tabs
Undecided At The Time - Born On The Sea Bass tabs


Guitar Tabs









All tabs are property and copyright of their owners. All tabs provided for educational purposes only. Privacy Policy, DMCA