Misc Unsigned Bands

Hourglass- ' Saving You' Tabs



More from Misc Unsigned Bands

Misc Unsigned Bands Tabs
Misc Unsigned Bands Chords
Misc Unsigned Bands Bass




I've been working on this song for months trying to get it right.
It's acoustic for now, but I'll make some electric parts on my
own time. The story behind this song is that it was written for
my dad, who unfortunately died in 2001. This song's tempo is
4/4 time, and you can make up your own strumming patterns, because
I use a different one each time I play this. Note that there is
a capo, so the notes are just moved up 1 fret.
(.)=half note(2 beats)

Standard tuning, CAPO 1ST FRET

Intro(slowly):
[----6---------------------------6----------------------------3----------------
[-7------6--7-----------------7-----6--7-------------------4-----3--4----------
[-8------------8--6--8--------8-----------8---6--8---------5-----------5---5---
[-8------------------8--------8------------------8---------5-------------5-----
[-6------------------6-6-6-6--6------------------6--6-6-6--3-------------------
[------------------------------------------------------------------------------
start strumming chords........
Asus4(8x) Bm(8x)
[-----------3-----------------------------------------0---------------3---------
[--------4-----3--4-----------------0-----0h4---------4---------------4---------
[--------5-----------5---5----------3---3-----3-------3---------------5---------
[--------5-------------5------------3-3----------3.---3---------------5---------
[-3-3-3--3------------------3-3-3---0-----------------0---------------3---------
[-----------------------------------------------------x---------------x---------

Verse:
Bm Asus4
I lie awake in my restless dreams
Bm Asus4
This is where I will not tread
Bm A6 D/A Bm
Everything you were is visible
C Asus4
But the lights are growing ever dimmer

Chorus:
Cadd9 Em
Is it too late to save you?
Cadd9 Em
You're a thousand miles away
Cadd 9 Em
Is it too hard to hear me?
Cadd9 Em
Cuz I feel like I'm all alone
Cadd9 Em
So far down
D
That I can't seem to breathe

(Intro)

Verse 2:
Cadd9 Em
Everything else is unreal
Cadd9 Em
Because only what you see, you feel
Cadd9 Em
Stay where you are until
D
You miss me when I'm gone

Chorus 2x

Outro:
strum(each 1 time) Cadd9, then Em, Cadd9, Em, then:
[----0------------------4-------------------------------------------------------
[--------------------------4------------------0---------------------------0-----
[-------0---0---0--------------0---0----0--------0----0---0-------------0---0.---
[-3.------3---3-----3.-----------3----3-----3.------3---3------3.-----3----------
[-4.----------------------------------------3.----------------------4-------------
[-------------------4.-----------------------------------------2.-----------------



Get this song at amazon.com      Ebay     Ringtones Ringtones  


Learn to play: Songwriting, Piano, Harmonica, Guitar

Related Misc Unsigned Bands Tabs

Draincleaner Hallucinations - Ussr Bass tabs
Subatomic Countdown - Now Youre Gone (intro) tabs
Numskulls - Franticness tabs
Traces Of A Dream - Are You Obsessed tabs
Silbermond - Kartenhaus tabs
The Pledge Drive - Taxi tabs
Exsistance - Above The Clouds tabs
Rockabunny - Love Me Tender Elvis Presley Cover tabs
Vaginal Incest - Chatting Is Gay tabs
Your First Time - Trampolines tabs
Zygote - Nejuan tabs
Some Kind Of Hero - Midnight Calling tabs
Witch Beulah - Psycho tabs
Vintage - Laminated Floorboards In A Winter Wonderland tabs
Tiny Moving Parts - Vacation Bible School tabs
The Vespas - You Said The Reason - Intro tabs
Vaginal Incest - Carnage tabs
Red Valley - Nevermind tabs
Negative Charge- No Guts No Glory tabs
No Fixed Address - My Chick tabs


Guitar Tabs









All tabs are property and copyright of their owners. All tabs provided for educational purposes only. Privacy Policy, DMCA