Misc Unsigned Bands

Gota Get Out Of Here - Dylan Berry Tabs



More from Misc Unsigned Bands

Misc Unsigned Bands Tabs
Misc Unsigned Bands Chords
Misc Unsigned Bands Bass




intro

e---------------------------------------------------------------------------
b---------------------------------------------------------------------------
g---------------------------------------------------------------------------
d------7-9b-------7-9b-5-----7-9b-------7-----7-----7-----7--play twice-----
a-7-7-9----5-7-7-9------7-7-9----5-7h-9h-7h-9h-7h-9h-7h-9h------------------
E---------------------------------------------------------------------------



chorus

e--------------------------------------------------------------------------
b--------------------------------------------------------------------------
g-9-9-x-x-7-7-x-x----------------------------------------------------------
d-9-9-x-x-7-7-x-x-5-5-5-5-6-7------play three times then do this on the 4th
a-7-7-x-x-5-5-x-x-5-5-5-5-6-7----------------------------------------------
E-----------------3-3-3-3-4-5----------------------------------------------



e--------------------------------------------------------------------------
b--------------------------------------------------------------------------
g-9-9-x-x-7-7-x-x----------------------------------------------------------
d-9-9-x-x-7-7-x-x-5-s-7-5-s-7-5-s-7-5-s-7----------------------------------
a-7-7-x-x-5-5-x-x-5-s-7-5-s-7-5-s-7-5-s-7--very fast-----------------------
E-----------------3-s-5-3-s-5-3-s-5-3-s-5----------------------------------



solo

e---------------------------------------------------------------------------
b---------------------------------------------------------------------------
g-------------------------9-7-----------------------------------------------
d--------7-9-----------7-9----------7-9---------7-----7-----9-----9---------
a-7h-7h-9---9-5-7h-7h-9------7h-7h-9---9-5-7h-9h-7h-9h-7h-9h-7h-9h----------
E---------------------------------------------------------------------------


e---------------------------------------------------------------------------
b---------------------------------------------------------------------------
g-------------------------9-7-----------------------------------------------
d--------7-9-----------7-9----------7-9---------7-----7-----9-----9-9---9---
a-7h-7h-9---9-5-7h-7h-9------7h-7h-9---9-5-7h-9h-7h-9h-7h-9h-7h-9h-6-7-9--let it ring
E---------------------------------------------------------------------------



Get this song at amazon.com      Ebay     Ringtones Ringtones  


Learn to play: Songwriting, Piano, Harmonica, Guitar

Related Misc Unsigned Bands Tabs

This Side Down - The End Is Far Away tabs
Good Goan - Ik Spol In Een Band Bass tabs
Blackdot - The Closed Fist Of Fury tabs
The Smokes - Invisible Lover tabs
Icarus - Your Lullaby tabs
Minimum Wage - Minimum Wage tabs
House Of Zatizfaktion - Leading Me tabs
Call To Riot - Jingle Bell Rock tabs
Summer Birds - Sweet Passing Days tabs
Sentry - The Begining tabs
Steel Wings - Moonwaker Intro tabs
Kerosene Skys - Razorblade Kiss tabs
New Beginning - Thursday Mornings tabs
Downfall - Pleasure Pain tabs
Virgo - The Wall tabs
Riserevenge - Nothing In The Mirror tabs
Sawtooth Grin - Satan Would Sit In The Smoking Section But Hes Afraid Of The Creepy Waitress tabs
Your Twisted Independence - Party Jail No Bail tabs
Fuck - Speener (intro) tabs
Silver Wing - If Only tabs


Guitar Tabs









All tabs are property and copyright of their owners. All tabs provided for educational purposes only. Privacy Policy, DMCA