Misc Unsigned Bands

Elemental Distress - Doom Of Darkness Bass Tabs



More from Misc Unsigned Bands

Misc Unsigned Bands Tabs
Misc Unsigned Bands Chords
Misc Unsigned Bands Bass



Doom of Darkness





Elemental Distress/Ben Chui

Bass









G||--------------------------|--------------------------|

D||--------------------------|--------------------------|

A||--------------------------|--------------------------|

E||--0--0--0--0--0--0--7--0--|--0--0--0--0--0--5--0--0--|







--------------------------|--------------------------|------------------------|

--------------------------|--------------------------|------------------------|

--------------------------|--5-----3-----5-----3-----|--3--2-----5----3----5--|

--0--0--0--0--3--0--1--0--|-----0-----0-----0-----0--|--------0---------------|







-------------------------|--------------------------|--------------------------|

-------------------------|--------------------------|--------------------------|

--7----------------------|--5-----------------------|--------------------------|

-------8--7--0--1--3--5--|-----0--0--0--0--0--0--0--|--3--3--3--3--3--3--3--3--|







--------------------------|--------------------------|

--------------------------|--------------------------|

--3--3--3--3--3--3--3--3--|--------------------------|

--------------------------|--5--5--5--5--5--5--5--5--|







--------------------------|--------------------------|

--------------------------|--------------------------|

--5--5--5--5--5--5--5--5--|--5--5--5--5--5--5--5--5--|

--------------------------|--------------------------|







--------------------------|--------------------------|

--------------------------|--------------------------|

--------------------------|--------------------------|

--7--7--7--7--7--7--7--7--|--5--5--5--5--5--5--5--5--|







--------------------------|------------------------|-------------------------|

--------------------------|------------------------|-------------------------|

--------------------------|------------------------|-------5-----5-----7-----|

--5--5--5--7--7--7--8--8--|--8--5--5--5--3----4----|--5-------5-----5-----5--|







--------------------------|------------------------------|

--------------------------|------------------------------|

--7-----7-----7-----------|------------------------------|

-----5-----7-----7--12----|--12--13--12----12--13--12----|







--------------------------|--------------------------|

--------------------------|--------------------------|

--------------------------|--------------------------|

--0--0--0--0--0--0--0--0--|--0--0--0--0--0--0--0--0--|







--------------------------|--------------------------|-------------------------|

--------------------------|--------------------------|-------------------------|

--------------------------|--------------------------|-------------------------|

--0--0--0--0--0--0--0--0--|--0--0--0--0--0--0--0--0--|--5----5--5--5--5--5--5--|







--------------------------|--------------------------|

--------------------------|--------------------------|

--------------------------|--------------------------|

--0--0--0--0--0--0--7--0--|--0--0--0--0--0--5--0--0--|







--------------------------|--------------------------|------------------------|

--------------------------|--------------------------|------------------------|

--------------------------|--5-----3-----5-----3-----|--3--2-----5----3----5--|

--0--0--0--0--3--0--1--0--|-----0-----0-----0-----0--|--------0---------------|







-------------------------|--------------------------|--------------------------|

-------------------------|--------------------------|--------------------------|

--7----------------------|--5-----------------------|--------------------------|

-------8--7--0--1--3--5--|-----0--0--0--0--0--0--0--|--3--3--3--3--3--3--3--3--|







--------------------------|--------------------------|

--------------------------|--------------------------|

--3--3--3--3--3--3--3--3--|--------------------------|

--------------------------|--5--5--5--5--5--5--5--5--|







--------------------------|--------------------------|

--------------------------|--------------------------|

--5--5--5--5--5--5--5--5--|--5--5--5--5--5--5--5--5--|

--------------------------|--------------------------|







--------------------------|--------------------------|

--------------------------|--------------------------|

--------------------------|--------------------------|

--7--7--7--7--7--7--7--7--|--5--5--5--5--5--5--5--5--|







--------------------------|------------------------|-------------------------|

--------------------------|------------------------|-------------------------|

--------------------------|------------------------|-------5-----5-----7-----|

--5--5--5--7--7--7--8--8--|--8--5--5--5--3----4----|--5-------5-----5-----5--|







--------------------------|------------------------------|

--------------------------|------------------------------|

--7-----7-----7-----------|------------------------------|

-----5-----7-----7--12----|--12--13--12----12--13--12----|







--------------------------|--------------------------|

--------------------------|--------------------------|

--------------------------|--------------------------|

--0--0--0--0--0--0--0--0--|--0--0--0--0--0--0--0--0--|







--------------------------|--------------------------|-------------------------|

--------------------------|--------------------------|-------------------------|

--------------------------|--------------------------|-------------------------|

--0--0--0--0--0--0--0--0--|--0--0--0--0--0--0--0--0--|--5----5--5--5--5--5--5--|







-------------------||

-------------------||

-------------------||

--0----------------||





Added by tabs-database.com and our distinguished partners
Get this song at amazon.com      Ebay     Ringtones Ringtones  


Learn to play: Songwriting, Piano, Harmonica, Guitar

Related Misc Unsigned Bands Tabs

The Red Jumpsuit Apparatus-face Down tabs
Every Step Every Breath - Alphazordon tabs
Victims Of Plague - System tabs
Operation World War - Onceler tabs
Ex-yu-rokeri - Neka Pjesma tabs
Sky Walker - In These Eyes tabs
Through The Haze - Deliver Us From Each Other tabs
Infektyd - Necrophobia tabs
The Northern Boys - Simons Hidden Feelings tabs
Rockabunny - Beads tabs
Random Acoustic Song tabs
Traces Of A Dream - Are You Obsessed tabs
Eargasm - The Bert Newton Song tabs
Bluefunk - Krucified tabs
Reduced To Clear - Nerd Boy Party tabs
Dualshock - Gay And Proud tabs
15 Ways - Drive tabs
Goukisan-guitar Vs Piano tabs
None Of The Above - Realize tabs
Under War Torn Skies - Puppet tabs


Guitar Tabs









All tabs are property and copyright of their owners. All tabs provided for educational purposes only. Privacy Policy, DMCA