Misc Unsigned Bands

Dusty Brown Room-the Craigs Tabs



More from Misc Unsigned Bands

Misc Unsigned Bands Tabs
Misc Unsigned Bands Chords
Misc Unsigned Bands Bass




This is Dusty Brown Room by the Craigs.

PART A
e-------------------------------------------------------
B------------------------------------------------------
G------------------------------------------------------ D-------2-0--------2-0-------2-0---3-2-0-2-0----------
A-3-3--------------------0-0--------------------3---
E--------------3-3------------------------------------

PART B
e------------------------
B-1---------------------
C C C C D D D D C C C C G----2-0--2-0----------
D----------------2------
A-----------------------
E------------------------

e--0--------------0--
B----3-13-1-----
C C C C D D D D C C C C G--------------------
D--------------------
A--------------------
E---------------------

e------------------------
B-------1---------------
C C C C D D D D C C C C G--0-2----2-0---------
D----------------2------
A-----------------------
E------------------------

e--0-----------------
B----3-13-1--1--
C C C C D D D D C C C C G--------------------
D--------------------
A--------------------
E---------------------

PART C

C C C D D D C C C F F F

Next page


This is the order:
A (4x)
B (8x)
C (4x)
B (4x)
C (4x)
B (4x)
C (4x)
B (4x)
C (4x)
B (8x)



Get this song at amazon.com      Ebay     Ringtones Ringtones  


Learn to play: Songwriting, Piano, Harmonica, Guitar

Related Misc Unsigned Bands Tabs

Skinned Youth - Carters Lake tabs
Meganoidi - Zeta Reticoli tabs
Silent Screams - The Death Thats Mine tabs
Michael Barrett - The End tabs
Democracy For Listeners - Never tabs
Jeez - Hoooot tabs
Fuhgawz - Capiche tabs
Paradox - Forgetfull Love tabs
10 Things - Jam 1 tabs
Fuhgawz - Agarrame El Pene Que Esta Bien Parado tabs
Iron And Wine - Fever Dream tabs
Spooter - Just Call Us Rock Stars tabs
Splash - Terror Tv tabs
Overtone - Hurt And Lost tabs
Sons Of Guns - Paginnis 5th Caprice tabs
Malhacao - Mudanca De Cena tabs
Bbrb - Michaels Song tabs
Silbermond - Endlich tabs
Ep - Fitrat Solo tabs
The Neutralized - Bacon And Eggs tabs


Guitar Tabs









All tabs are property and copyright of their owners. All tabs provided for educational purposes only. Privacy Policy, DMCA