Misc Unsigned Bands

Duckbomb - The Day Hot Topic Burned Down Bass Tabs



More from Misc Unsigned Bands

Misc Unsigned Bands Tabs
Misc Unsigned Bands Chords
Misc Unsigned Bands Bass

-------------------------------------------------------------------------------

the day hot topic burned down - duckbomb

-------------------------------------------------------------------------------



Tabbed By : zach

e-mail: webmaster at tabs-database.com.com

go to tabs-database.com[http://www.tabs-database.com.com/] to get cds or tapes from us DIY for life

also theres a full tracklist and LYRICS(very important) and links to mp3s so you can

here the songs so you can play them NO COPYRIGHTS EVER LOVE DUCKBOMB, HATE MYSPACE/hot topic!!!!

Tuning: standard

main riff/verse

G|---------------------------------------------------------------------------|

D|---------------------------------------------------------------------------|

A|------------5555-5555---------------------5555-5555------------------------|

E|--3333-3333-----------7777-7777-3333-3333-----------7777-7777-10-10-10-10--|



chorus

G|---------------------------|

D|---------------------------|

A|------xx-55----------------|

E|--333-------xx-777-xx-777--|



then break for drums and repeat then



bass break (slap and pop if you can)

G|------------7---7----------------------------7---7--------------------|

D|----5---5-----------9---9---9---9----5---5-----------9---9----12---9--|

A|----------5---5----------------------------5---5----------------------|

E|--3---3-----------7---7---7---7----3---3-----------7---7---10----7----|



then verse and chorus



then slower

G|-----------------------|

D|-----------------------|

A|-----------------------|

E|--3--33-33/--7--77-77--|



then chorus for the win



=======================================Added by tabs-database.com and our distinguished partners
Get this song at amazon.com      Ebay     Ringtones Ringtones  


Learn to play: Songwriting, Piano, Harmonica, Guitar

Related Misc Unsigned Bands Tabs

Davine - My Oh My Bass tabs
Crosseyed - Little Fast Song tabs
New Beginning - Thursday Mornings tabs
Midweek- Slipping Dream tabs
Frequency - Life Of Hate And Death tabs
Crackers - Thats Not Mine tabs
Glimpse Of Darkness - Breaking The Habit Lp Cover tabs
Reduced To Clear - Collection Of Smashed Bottles tabs
Irrelevance - Suicidal Singalong tabs
Sudden Seizures - Apocalypse tabs
Silbermond - Letzte Bahn tabs
Alchemy - Changes tabs
Bankrupt - No Anything tabs
The Joe Pirret Experience - Ride On tabs
Deprived Of The Truth - Stick God Up Your Ass tabs
Drennan Bragg Experiment- Mr. Soul tabs
Infra Red - Innuendo (intro) tabs
Audio Journey - Angel tabs
D 316 - First Rock Concert tabs
Toemas And The Emophobes - Generic tabs


Guitar Tabs









All tabs are property and copyright of their owners. All tabs provided for educational purposes only. Privacy Policy, DMCA