Misc Unsigned Bands

Duckbomb - Post Traumatic Stress Disorder Bass Tabs



More from Misc Unsigned Bands

Misc Unsigned Bands Tabs
Misc Unsigned Bands Chords
Misc Unsigned Bands Bass

-------------------------------------------------------------------------------

post traumatic stress disorder - duckbomb

-------------------------------------------------------------------------------



Tabbed By : zach

e-mail: webmaster at tabs-database.com.com



Tuning: standard



intro (after a tom roll) then verse with no words and chorus with words

G|---------------------------------------------------------------------------|

D|---------------------------------------------------------------------------|

A|---------------------------------------------------------------------------|

E|--3333-3333-3333-3333-3333-3333-3333-3333----------------------------------|



verse

G|---------------------------------------------------------------------------|

D|---------------------------------------------------------------------------|

A|-------55-66-3333-53--------5-6-8888-6-5-----------------------------------|

E|--3333--------------65-3333------------------------------------------------|



chorus (tens and elevens)

G|---------------------------------------------------------------------------|

D|---------------------------------------------------------------------------|

A|----/-10---/-10---/-10-1111-1010-------------------------------------------|

E|--3-/----3-/----3-/--------------------------------------------------------|



break for guitar palm mute on 3rd fret then verse and chorus



bass break (play by yourself then with drums and guitar then back to verse and chorus)

G|---------------3-3-33-3----------------------------------------------------|

D|----5-----3-------------5-3------------------------------------------------|

A|------3h5---5-3------------------------------------------------------------|

E|--3------------------------------------------------------------------------|



then marchey part then small verse and chorus

G|---------------------------------------------------------------------------|

D|---------------------------------------------------------------------------|

A|--------------------555-555------------------------------------------------|

E|--3-333-3-333-3-333--------------------------------------------------------|



guitar has a lead in the march

G|----9-10-9-7-9---9-10-9-7-9---9-10-9-7-9/14-ring-then-then-join-bass-part--|

D|--7------------7------------7----------------------------------------------|

A|---------------------------------------------------------------------------|

E|---------------------------------------------------------------------------|

i was going to do the layout for every song but you can figure it out there pretty easy

===============================================Added by tabs-database.com and our distinguished partners
Get this song at amazon.com      Ebay     Ringtones Ringtones  


Learn to play: Songwriting, Piano, Harmonica, Guitar

Related Misc Unsigned Bands Tabs

Rump-le - Foundation tabs
Quick Kill Lucy - Your Dads Dead tabs
33 West - Call On My Lover tabs
Paradox - Ugly On The Inside Bass tabs
Almost Cool - Miss You tabs
Mike Lisi - I Dont Know tabs
The Neutralized - Cop tabs
Itchycoo Park - Cassandra tabs
Fresh Off The Boat - Life Goes On tabs
2020 Vision - Child Take Out tabs
Hyper 25 - Sure tabs
Oakdene - Sun tabs
Silent Bombs - An Endless Pain tabs
Blackdot - The Closed Fist Of Fury tabs
Pondering Phoxes - Run Away To Mars tabs
Love And Cellophane - The Goodbye Song tabs
Bdi - Get Out Of My Life tabs
Schoolyard Heroes - Dawn Of The Dead tabs
Spooter - Hello Mcloud tabs
Fuck - Speener (intro) tabs


Guitar Tabs









All tabs are property and copyright of their owners. All tabs provided for educational purposes only. Privacy Policy, DMCA