Misc Unsigned Bands

Dragonforce - Through Fire And Flames Tabs



More from Misc Unsigned Bands

Misc Unsigned Bands Tabs
Misc Unsigned Bands Chords
Misc Unsigned Bands Bass




This is a really hard song and I'm surprised that I got this much.

TUNING - Standard (E,A,D,G,B,e)

|-----------------------------------|
|-----------------------------------|
|-5------5--------------------------|
|-5------5-----8-(8)----6-----5-----|
|-3----xx3-----8-(8)----6-----5-----|
|--------------6-(6)----4-----3-----|

(0:10)(0:13) (0:15) (0:18)
|-----------------------------------|
|-----------------------------------|
|-5------5--------------------------|
|-5------5-----6-(6)----5---5-5-5---|
|-3----xx3-----6-(6)----5---5-5-5---|
|--------------4-(4)----3---3-3-3---|

GtrI
|--------------------------------------------------------|
|--------------------------------------------------------|
|-888688686888688686--121212812128128121212812128128-----|
|--------------------------------------------------------|
|--------------------------------------------------------|
|--------------------------------------------------------|

|--------------------------------------------------------|
|--------------------------------------------------------|
|-101010810108108101010810108108--888688686--77777-------|
|--------------------------------------------------------|
|--------------------------------------------------------|
|--------------------------------------------------------|

gtrII
|-------------------------------------------------------------------------|
|-------------------------------------------------------------------------|
|-5---------------12----------------10--------------8---------------7-----|
|-5---------------12----------------10--------------8---------------7-----|
|-3-3-3-3-3-3-3-3-10-10-10-10-10-10-8-8-8-8-8-8-8-8-6-6-6-6-6-6-6-6-5-5-5-|
|-------------------------------------------------------------------------|

GtrI
|--------------------------------------------------------|
|--------------------------------------------------------|
|-888688686888688686--121212812128128121212812128128-----|
|--------------------------------------------------------|
|--------------------------------------------------------|
|--------------------------------------------------------|

|--------------------------------------------------------|
|--------------------------------------------------------|
|-101010810108108101010810108108--888688686--77777-------|
|--------------------------------------------------------|
|--------------------------------------------------------|
|--------------------------------------------------------|
gtrII
|-------------------------------------------------------------------------|
|-------------------------------------------------------------------------|
|-5---------------12----------------10--------------8---------------7-----|
|-5---------------12----------------10--------------8---------------7-----|
|-3-3-3-3-3-3-3-3-10-10-10-10-10-10-8-8-8-8-8-8-8-8-6-6-6-6-6-6-6-6-5-----|
|-------------------------------------------------------------------------|

|------------------------------------------------|
|------------------------------------------------|
|-5--------------------------------5-5-------5---|
|-5------------6---------8---------5-5--6-6--5---|
|-3------------6---------8---------3-3--6-6--3---|
|--------------4---------6--------------4-4------|

gtrI+II
|---------------------------------------------------------------|
|---------------------------------------------------------------|
|-5-----------------5-5-----------------------------------------|
|-5-----------------5-5--6--------------------8------8----------|
|-33333333333333333-3-3--6--------------------8------8----------|
|------------------------4444444444444444----x666666x666666666--|
pm ................ ............... . ...... ........

|------------------------------|
|------------------------------|
|-----5-----5---5-5-3-5--------|
|-----5-----5---5-5-3-5--------|
|-3-3-3-3-3-3---3-3-1-3-3-3-3--|
|------------------------------|
pm. . . . . . .


|---------------------------------------------------------------------------|
|---------------------------------------------------------------------------|
|-5-----------------5-5-----------------------------------------------------|
|-5-----------------5-5--6--------------------8-8---------------------------|
|-33333333333333333-3-3--6--------------------8-8---------8-8---------------|
|------------------------4444444444444444----x6-6---------6-6---------------|
pm ................ ............... . .

|--------------------|
|--------------------|
|-5-------------5-5--|
|-5-------------5-5--|
|-3-3-3-3-3-3-3-3-3--|
|--------------------|
pm . . . . . .


|------------------------------------------------------|
|------------------------------------------------------|
|-10------10------10------10------10---5-(5)-(5)-------|
|-10------10------10------10------10---5-(5)-(5)-------|
|-8-8-8-8-8-8-8-8-8-8-8-8-8-8-8-8-8----3-(3)-(3)-------|
|------------------------------------------------------|

|--------------------------|
|--------------------------|
|--------------------------|
|--6-----6-----6-----8-(8)-|
|--6-----6-----6-----8-(8)-|
|--4-4-4-4-4-4-4-4-4-6-(6)-|

|---------------------------------------|
|---------------------------------------|
|---------------------------------------|
|--6-----6-----6-----8-(8)-----8--6--8--|
|--6-----6-----6-----8-(8)-----8--6--8--|
|--4-4-4-4-4-4-4-4-4-6-(6)-6-6-6--4--6--|


chorus
gtrI

|----------------------------------------------------------------------------------|
|----------------------------------------------------------------------------------|
|----------8-----------------------5---5-------------------------------------------|
|----------8---8-----6----4-----5---5----8---8----------6--------------------------|
|----------6---8-----6--4---4------3-3-3-3-------8---8-----6-----------------------|
|--------------6-6-6-4---------------------------6-6-6-6--------444444444444-------|
pm . . . . . . . . . ...........

gtrII
|----------------------------------------------------------------------------------|
|----------------------------------------------------------------------------------|
|----------8-----------------------------------------------------------------------|
|----------8---8-----6-------------------------------------------------------------|
|----------6---8-----6---(12)--(15)--(17)--(19)------------------------------------|
|--------------6-6-6-4-------------------------------------------------------------|
pm . .



Get this song at amazon.com      Ebay     Ringtones Ringtones  


Learn to play: Songwriting, Piano, Harmonica, Guitar

Related Misc Unsigned Bands Tabs

Phantasmagoria - Eternal Silence tabs
Fingersmoran - Time Machine Bass tabs
Black Elemente - Till You Drop tabs
Assume The Position - War Intro tabs
Half Awake - My Friend tabs
Flawd - True Face tabs
No Fixed Address - My Chick tabs
Cracked Shell - The Craigs tabs
Fallout Shelter - Churchbells In London tabs
Obelisk - Computer God tabs
Anorexia Nervosa - Chtiment De La Rose tabs
A New Day - Give Me A Break tabs
Living Daylights - Hypnotize tabs
Paradox - Sorry Im Not A Soldier Bass tabs
Dinley - Lucy tabs
Outta Sight - Trying tabs
The Waiting Ends - Fields Of Green tabs
La Vie En Rose - Logan Kendell tabs
Maple Street - Living Fast Dying Young tabs
Purple Soldier - Battlefield tabs


Guitar Tabs









All tabs are property and copyright of their owners. All tabs provided for educational purposes only. Privacy Policy, DMCA