Misc Unsigned Bands

Caelum Ferrum - My Smile As Fake As Her Love Tabs



More from Misc Unsigned Bands

Misc Unsigned Bands Tabs
Misc Unsigned Bands Chords
Misc Unsigned Bands Bass



Intro/Verse

(Acoustic)



e|----1---- e|----3---- e|----0----|

B|--3---3-- B|--3---3-- B|--3---3--|

G|---2---2- x4 G|---2---2- x4 G|---2---2-|

D|-0------- D|-0------- D|-0-------|

A|--------- A|--------- A|---------|

E|--------- E|--------- E|---------|





Chorus



e|-111111-333333-000000-1111-|

B|-333333-333333-222222-3333-|

G|-222222-000000-000000-2222-| x4

D|-000000-000000-000000-0000-|

A|---------------------------|

E|---------------------------|



e|-1h3p1p0h1h3p1p0h1h3p1p0-----|

B|------------------------1vvv-|



Interlude/bridge



e|-2-2-2-2-2-2-2-2-3-3-3-3-3-3-3-3-0-0-0-0-0-0-0-0-2-|

B|-3-3-3-3-3-3-3-3-3-3-3-3-3-3-3-3-3-3-3-3-3-3-3-3-3-|

G|-2-2-2-2-2-2-2-2-2-2-2-2-2-2-2-2-2-2-2-2-2-2-2-2-2-|

D|-0-0-0-0-0-0-0-0-0-0-0-0-0-0-0-0-0-0-0-0-0-0-0-0-0-|

A|---------------------------------------------------|

E|---------------------------------------------------|



outro



e|----1-----1-|

B|--3---3---3-|

G|---2---2--2-|

D|-0--------0-|

A|------------|

E|------------|Added by tabs-database.com and our distinguished partners
Get this song at amazon.com      Ebay     Ringtones Ringtones  


Learn to play: Songwriting, Piano, Harmonica, Guitar

Related Misc Unsigned Bands Tabs

Split-society - Underneath Humanity tabs
Fate - Tragic Losses tabs
Martin Garrix - Animals tabs
The Random Rockers- Boredom tabs
Fmc - Wellenlaengen (album) tabs
Ballkinks - Devils Words tabs
Cursed - Cursed tabs
Strole - Zachs House tabs
Pyrochild - Ice Cream Man tabs
Radiant Peppermint Hedgehogs - Strumming Away tabs
The Same Page - City Lights tabs
Konspiracy - Only One tabs
Boom Boom Boom!! tabs
Duckbomb - The Day Hot Topic Burned Down Bass tabs
Point Of Rejection - Dont Try It tabs
Symphzero - Drawl tabs
Vaginal Incest - Carnage tabs
The Democracy Effect - Number Not A Person tabs
Bloodwork - Send The Pain tabs
Cracked Shell - The Craigs tabs


Guitar Tabs









All tabs are property and copyright of their owners. All tabs provided for educational purposes only. Privacy Policy, DMCA