Misc Unsigned Bands

August Oster - Steps Too Happy Tabs



More from Misc Unsigned Bands

Misc Unsigned Bands Tabs
Misc Unsigned Bands Chords
Misc Unsigned Bands Bass

Tuning: Open C (CGCGCE)

****************************
Legend
/ = slide up
\ = slide down
b = bend
+ = harmonic
*****************************


e|-0----0-|-0----0-|
C|-0----0-|-0----0-|
G|-0----0-|-0----0-|
C|-0----0-|-0----0-|
G|-0----0-|-0----0-|
C|-0----0-|-0----0-|


e|---------------------------------|---------------------------------|
C|---------------------------------|---------------------------------|
G|---------------------------------|---------------------------------|
C|------0-------0-------0-------0--|------0-------0-------0-------0--|
G|---------------------------------|---------------------------------|
C|--0-------0-------0-------0------|--0-------0-------0-------0------|


e|------8-----7-----5-----2-----3--|---------------------------------|
C|---------------------------------|---------------------------------|
G|---------------------------------|---------------------------------|
C|------0-------0-------0-------0--|------0-------0-------0-------0--|
G|---------------------------------|---------------------------------|
C|--0-------0-------0-------0------|--0-------0-------0-------0------|


e|------------------------------0--|---------------------------------|
C|------5-----4-----2-----0--------|--0------------------------------|
G|---------------------------------|---------------------------------|
C|------0-------0-------0-------0--|------0-------0-------0-------0--|
G|---------------------------------|---------------------------------|
C|--0-------0-------0-------0------|--0-------0-------0-------0------|


e|------8-----7-----5-----2-----3--|---------------------------------|
C|---------------------------------|---------------------------------|
G|---------------------------------|---------------------------------|
C|------0-------0-------0-------0--|------0-------0-------0-------0--|
G|---------------------------------|---------------------------------|
C|--0-------0-------0-------0------|--0-------0-------0-------0------|



e|------------------------------0--|---------------------------------|
C|------5-----4-----2-----0--------|--0------------------------------|
G|---------------------------------|---------------------------------|
C|------0-------0-------0-------0--|------0-------0-------0-------0--|
G|---------------------------------|---------------------------------|
C|--0-------0-------0-------0------|--0-------0-------0-------0------|


e|------------------------0--------|-------------------------7+--12+-|
C|------0-----0-----0----------0---|------0-----0-----0------7+--12+-|
G|---------------------------------|-------------------------7+--12+-|
C|------0-------0-------0------0---|------0-------0-------0--7+--12+-|
G|---------------------------------|-------------------------7+--12+-|
C|--0-------0-------0-------0------|--0-------0-------0------7+--12+-|


e|------------------------0--------|-------------------------7+--12+-|
C|------0-----0-----0----------0---|------0-----0-----0------7+--12+-|
G|---------------------------------|-------------------------7+--12+-|
C|------0-------0-------0------0---|------0-------0-------0--7+--12+-|
G|---------------------------------|-------------------------7+--12+-|
C|--0-------0-------0-------0------|--0-------0-------0------7+--12+-|


e|------8-----7-----5-----2-----3--|---------------------------------|
C|---------------------------------|---------------------------------|
G|---------------------------------|---------------------------------|
C|------0-------0-------0-------0--|------0-------0-------0-------0--|
G|---------------------------------|---------------------------------|
C|--0-------0-------0-------0------|--0-------0-------0-------0------|



e|------------------------------0--|---------------------------------|
C|------5-----4-----2-----0--------|--0------------------------------|
G|---------------------------------|---------------------------------|
C|------0-------0-------0-------0--|------0-------0-------0-------0--|
G|---------------------------------|---------------------------------|
C|--0-------0-------0-------0------|--0-------0-------0-------0------|


e|------8-----7-----5-----2-----3--|---------------------------------|
C|---------------------------------|---------------------------------|
G|---------------------------------|---------------------------------|
C|------0-------0-------0-------0--|------0-------0-------0-------0--|
G|---------------------------------|---------------------------------|
C|--0-------0-------0-------0------|--0-------0-------0-------0------|


e|------------------------------0--|---------------------------------|
C|------5-----4-----2-----0--------|--0------------------------------|
G|---------------------------------|---------------------------------|
C|------0-------0-------0-------0--|------0-------0-------0-------0--|
G|---------------------------------|---------------------------------|
C|--0-------0-------0-------0------|--0-------0-------0-------0------|


e|----------------0----------------|----------------0----------------|
C|------0-----------------0--------|------0-----------------0--------|
G|------------0-------0-------0----|------------0-------0-------0----|
C|------2-------2-------2-------2--|-/----5-------5-------5-------5--|
G|---------------------------------|---------------------------------|
C|--2-------2-------2-------2------|-/5-------5-------5-------5------|


e|----------------0----------------|----------------0----------------|
C|------0-----------------0--------|------0-----------------0--------|
G|------------0-------0-------0----|------------0-------0-------0----|
C|-\----4-------4-------4-------4--|-/----5-------5-------5-------5--|
G|---------------------------------|---------------------------------|
C|-\4-------4-------4-------4------|-/5-------5-------5-------5------|


e|----------------0---------------0|----------------0----------------|
C|------0-----------------0--------|--------0---------------0--------|
G|------------0-------0-------0----|----0-------0-------0-------0----|
C|-\----2-------2-------2-------2--|------2--------2-------2------2--|
G|---------------------------------|---------------------------------|
C|-\2-------2-------2-------2------|--2-------2-------2-------2------|


e|---------------------------------|---------------------------------|
C|---------------------------------|---------------------------------|
G|---------------------------------|---------------------------------|
C|------0-------0-------0-------0--|------0-------0-------0-------0--|
G|---------------------------------|---------------------------------|
C|-/7-------7-------7-------7------|--7b------7-------7b------7------|


e|---------------------------------|
C|---------------------------------|
G|---------------------------------|
C|------0-------0-------0-------0--|
G|---------------------------------|
C|--7b------7-------7b------7------|


e|----------------0----------------|---------------------------------|
C|------0-----------------0--------|------0---------0-------0--------|
G|------------7-------7-------7----|-\----------5-------5-------5----|
C|------0-------0-------0-------0--|------0-------0-------0-------0--|
G|---------------------------------|---------------------------------|
C|--7-------7-------7-------7------|-\5-------5-------5-------5------|


e|----------------0----------------|---------------------------------|
C|------0-----------------0--------|------0---------0-------0--------|
G|-/----------7-------7-------7----|-\----------5-------5-------5----|
C|------0-------0-------0-------0--|------0-------0-------0-------0--|
G|---------------------------------|---------------------------------|
C|-/7-------7-------7-------7------|-\5-------5-------5-------5------|


e|----------------0----------------|---------------------------------|
C|------0-----------------0--------|------0---------0-------0-------0|
G|-/----------7-------7-------7----|-\----------5-------5-------5----|
C|------0-------0-------0-------0--|------0-------0-------0-------0--|
G|---------------------------------|---------------------------------|
C|-/7-------7-------7-------7------|-\5-------5-------5-------5------|


e|------------5--------------------|------------5-----------------12+|
C|------7b----------7b----5-----4--|------7b----------7b----5-----12+|
G|---------------------------------|------------------------------12+|
C|------0-------0-------0-------0--|------0-------0-------0-------12+|
G|---------------------------------|------------------------------12+|
C|--0-------0-------0-------0------|--0-------0-------0-------0---12+|


e|------------5--------------------|--------------------------0------|
C|------7b----------7b----5-----4--|--2-----2-----2-----2---------0--|
G|---------------------------------|---------------------------------|
C|------0-------0-------0-------0--|------0-------0-------0-------0--|
G|---------------------------------|---------------------------------|
C|--0-------0-------0-------0------|--0-------0-------0-------0------|


e|------------5--------------------|------------5-----------------12+|
C|------7b----------7b----5-----4--|------7b----------7b----5-----12+|
G|---------------------------------|------------------------------12+|
C|------0-------0-------0-------0--|------0-------0-------0-------12+|
G|---------------------------------|------------------------------12+|
C|--0-------0-------0-------0------|--0-------0-------0-------0---12+|


e|------------5--------------------|--------------------------0------|
C|------7b----------7b----5-----4--|--2-----2-----2-----2---------0--|
G|---------------------------------|---------------------------------|
C|------0-------0-------0-------0--|------0-------0-------0-------0--|
G|---------------------------------|---------------------------------|
C|--0-------0-------0-------0------|--0-------0-------0-------0------|


e|---------------------------------|---------------------------------|
C|--------------0---------------0--|------0--------------------------|
G|---------------------------------|---------------------------------|
C|------2/7-----7-------2/7-----7--|------5-------5-------5-------5--|
G|---------------------------------|---------------------------------|
C|--0-------0-------0-------0------|--0-------0-------0-------0------|


e|---------------------------------|---------------------------------|
C|------0--------------------------|------0--------------------------|
G|---------------------------------|---------------------------------|
C|-\----4-------4-------4-------4--|-\----2-------2-------2-------2--|
G|---------------------------------|---------------------------------|
C|--0-------0-------0-------0------|--0-------0-------0-------0------|


e|---------------------------------|---------------------------------|
C|--------------0---------------0--|------0--------------------------|
G|---------------------------------|---------------------------------|
C|------2/7-----7-------2/7-----7--|------5-------5-------5-------5--|
G|---------------------------------|---------------------------------|
C|--0-------0-------0-------0------|--0-------0-------0-------0------|

                          . . . . slow it down to a stop and pause ..|
e|---------------------------------|---------------------------------|
C|------0--------------------------|------0--------------------------|
G|---------------------------------|---------------------------------|
C|-\----4-------4-------4-------4--|-\----2-------2-------2-------2--|
G|---------------------------------|---------------------------------|
C|--0-------0-------0-------0------|--0-------0-------0-------0------|

 |slowly speed back up to normal speed...
e|----------------0----------------|----------------0----------------|
C|--------0---------------0--------|--------0---------------0--------|
G|----2-------2-------2-------2----|-/--5-------5-------5-------5----|
C|------0-------0-------0-------0--|------0-------0-------0-------0--|
G|---------------------------------|---------------------------------|
C|--2-------2-------2-------2------|-/5-------5-------5-------5------|


e|----------------0----------------|----------------0----------------|
C|--------0---------------0--------|--------0---------------0--------|
G|-/--9-------9-------9-------9----|-\--4-------4-------4-------4----|
C|------0-------0-------0-------0--|------0-------0-------0-------0--|
G|---------------------------------|---------------------------------|
C|-/9-------9-------9-------9------|-\4-------4-------4-------4------|


e|----------------0----------------|----------------0----------------|
C|--------0---------------0--------|--------0---------------0--------|
G|-\--2-------2-------2-------2----|-/--5-------5-------5-------5----|
C|------0-------0-------0-------0--|------0-------0-------0-------0--|
G|---------------------------------|---------------------------------|
C|-\2-------2-------2-------2------|-/5-------5-------5-------5------|


e|----------------0----------------|----------------0----------------|
C|--------0---------------0--------|--------0---------------0--------|
G|-/--9-------9-------9-------9----|-\--4-------4-------4-------4----|
C|------0-------0-------0-------0--|------0-------0-------0-------0--|
G|---------------------------------|---------------------------------|
C|-/9-------9-------9-------9------|-\4-------4-------4-------4------|


e|---------------------------------|---------------------------------|
C|---------------------------------|---------------------------------|
G|---------------------------------|---------------------------------|
C|------0-------0-------0-------0--|------0-------0-------0-------0--|
G|---------------------------------|---------------------------------|
C|-/7-------7-------7-------7------|--7b------7-------7b------7------|


e|---------------------------------|
C|---------------------------------|
G|---------------------------------|
C|------0-------0-------0-------0--|
G|---------------------------------|
C|--7b------7-------7b------7------|


e|----------------0----------------|---------------------------------|
C|------0-----------------0--------|------0---------0-------0--------|
G|------------7-------7-------7----|------------5-------5-------5----|
C|------0-------0-------0-------0--|------0-------0-------0-------0--|
G|---------------------------------|---------------------------------|
C|--7-------7-------7-------7------|--5-------5-------5-------5------|


e|----------------0----------------|---------------------------------|
C|------0-----------------0--------|------0---------0-------0--------|
G|------------7-------7-------7----|------------5-------5-------5----|
C|------0-------0-------0-------0--|------0-------0-------0-------0--|
G|---------------------------------|---------------------------------|
C|--7-------7-------7-------7------|--5-------5-------5-------5------|


e|----------------0----------------|---------------------------------|
C|------0-----------------0--------|------0---------0-------0-------0|
G|------------7-------7-------7----|------------5-------5-------5----|
C|------0-------0-------0-------0--|------0-------0-------0-------0--|
G|---------------------------------|---------------------------------|
C|--7-------7-------7-------7------|--5-------5-------5-------5------|

                ...slow it down up to the finish|
e|---------------------------------|--7+--12+--0|
C|--------0-------0-------0--------|--7+--12+--0|
G|----5-------5-------5-------5----|--7+--12+--0|
C|------0-------0-------0-------0--|--7+--12+--0|
G|---------------------------------|--7+--12+--0|
C|--5-------5-------5-------5------|--7+--12+--0|
Get this song at amazon.com      Ebay     Ringtones Ringtones  


Learn to play: Songwriting, Piano, Harmonica, Guitar

Related Misc Unsigned Bands Tabs

Bankrupt - Five Kinds Of Crazy tabs
Axels - Jesus Is My Personal Foot-stool tabs
The Loose Screws - Scalded Dog Bass tabs
Whale Bones - Go Kaitlin tabs
Ambulance Ltd - Primitive tabs
Fresh Off The Boat - Hey tabs
15 Ways - Drive tabs
Dominus - Hypocrite tabs
Remedy - Gone In The Wind tabs
Facts And Figures - Premix Bass tabs
Emerald - Beat The World tabs
Goodbye For Now - Swallow Your Tongue tabs
The Mile After - The Only One tabs
The Oxygen Addicts - Stratus Bass tabs
Noisy Box - Ensalada De Ratas tabs
Not In Public - Insomnia tabs
Davine - My Oh My Bass tabs
Siempre Fiel - Sufro En Silencio tabs
Bmx Infested - The First Chapter tabs
Journey From The Grave - Fire Bass tabs


Guitar Tabs









All tabs are property and copyright of their owners. All tabs provided for educational purposes only. Privacy Policy, DMCA