Misc Unsigned Bands

Arm The Poor - Its Not A Tumor Bass Tabs



More from Misc Unsigned Bands

Misc Unsigned Bands Tabs
Misc Unsigned Bands Chords
Misc Unsigned Bands Bass



shits dedicated 2 the 4 funniest white dudes i know that all JUST HAPPEN 2 be in the

band

with luv,

$uga $eanny De light

intro

G--8-7-5-----|

D--------8---|

A------------|

E------------|

main riff

G-------------------------------------12-12----10-10-----8-8------------|

D------------------7-------7----------12-12----10-10-----8-8------------|

A----5-85--5-85-5-8---8-5-8---8--10-10-10-10-8--8--8--6--6-6-6-6-5------|

E--6-----6---------------------------------------------------------8-6--|

chorus

G------------------------------------------|

D------------------------------------------|

A---------6/88888888/66666666/888888-6-5---|

E-66666666-------------------------------8-|

bridge

G--------------------------------|

D--------------------------------|

A--------------------------------|

E-333111666-8/6-8/6-8/6----------|Added by tabs-database.com and our distinguished partners
Get this song at amazon.com      Ebay     Ringtones Ringtones  


Learn to play: Songwriting, Piano, Harmonica, Guitar

Related Misc Unsigned Bands Tabs

The Same Page - City Lights tabs
Spooter - Hello Mcloud tabs
Black And White - When The Clouds Collide tabs
Cfs - Dumbarton Anthem tabs
Barclay Ichinose - The Clown And The Giant Other Side tabs
Goukisan-guitar Vs Piano tabs
Guard Rails - Why tabs
Edenwood - Edenwood tabs
Arrive Alive - I Have Two Shadows tabs
Blackdot - Lines Of Reflection tabs
The 86 List - Things Have Changed Bass tabs
Delta 9 - Epitaph tabs
The Neutralized - Last Stand tabs
10 Things - Jam 1 tabs
2little2late - Working On It tabs
Cunninlynguists - The Light tabs
First Rights - As The Rain Falls Bass tabs
Last Promise - Burning tabs
Personal Suicide - Death To The Slaughter tabs
Undecided At The Time - Born On The Sea Bass tabs


Guitar Tabs









All tabs are property and copyright of their owners. All tabs provided for educational purposes only. Privacy Policy, DMCA