Misc Unsigned Bands

April Or Nil - Time To Gather Stones Tabs



More from Misc Unsigned Bands

Misc Unsigned Bands Tabs
Misc Unsigned Bands Chords
Misc Unsigned Bands Bass

------------------------ ------------------------|
------------------------ ------------------------|
------------------------ ------------------------|
10-10-9-9-10-10-10------ 10-10-9-9-10-10-10------|
-------------------0---- ------------------------|
------------------------ -------------------8----|

------------------------ ------------------------|
------------------------ ------------------------|
------------------------ ------------------------|
12-12-10-10-12-12-12---- 12-12-12-12\10-9--------|
---------------------8-- -----------------10-0---|
------------------------ ------------------------|

------------------------ -------------------------|
------------------------ -------------------------|
----------------------12 ----------------------10-|
10-10-9-9-10-10-10------ 10-10-9-9-10-10-10-------|
-------------------0---- -------------------------|
------------------------ -------------------8-----|

------------------------- ------------------------|
------------------------- ------------------------|
-----------------------10 ----------------------9-|
12-12-10-10-12-12-12----- 12-12-12-12\10-9--------|
---------------------8--- -----------------10-0---|
------------------------- ------------------------|

--------------------------------------------------|
----------------------------3-6-5------5-6-3------|
----4-5-4-------4-5-4-----------------------------|
--5-------5---5-------5---5-------5--5-------5----|
0-----------0-----------0-----------0-------------|
--------------------------------------------------|
                                                     x2
-------------------------------------------3--3---|
----------------------------3-6-5------5-6--------|
----4-5-4-------4-5-4-----------------------------|
--5-------5---5-------5---5-------5--5-------5--5-|
0-----------0-----------0-----------0-------------|
--------------------------------------------------|

--5----7-------8--------10-8-7-------------------------|
----5----5---5---5---5---------------------8---------8-|
------5----5-------5-----------9---10--------10----10--|
--------------------------------------10--------10-----|
0--------------------------------8-------8-------------|
-------------------------------------------------------|

--------------------------------------------------------|
--5-----6-----8-----6---------------8-6-5---------------|
----7-----7---------------------7-----------------------|
------7-----7---7-----7---7---7---7-----------7-----7---|
5-----------------5-----5---5-------------------7-----7-|
-----------------------------------------8\5-----5------|

--------------------------5-----7-------8-------12-10-8--|
----------------------------5-----5---5---5---5----------|
------------4h5---------------5-----5-------5----------9-|
--7---7---------7----------------------------------------|
--------7---------7-0------------------------------------|
5---5-----5-----------1/5--------------------------------|

----------------------8---------------8-----7-----------|
-----------8--------------5-----6-------6-----6---6-----|
--10----10---10----10-------7-----7-------5-----5-------|
-----10---------10------5-----7-----7-------------------|
8-------------------------------------------------------|
--------------------------------------------------------|

--------8-7-8/10----------------------------------------|
-------------------10-----10---------10-----10----------|
----7-----------------9------9---9------9------9---9----|
--7---7-------------------------------------------------|
5----------------0------0------0---0------0------0------|
--------------------------------------------------------|

--------------------------------------------------------|
--10-----10---------10-----10/12------------------------|
-----9------9---9------9---------9----------------------|
--------------------------------------------------------|
0------0------0---0------0---------0--------------------|
--------------------------------------------------------|

--------------------------------------------------------|
--------------------------------------------------------|
----4h5p4-4-------4h5p4-4-------4h5p4-4-------4h5p4-4---|
--5---------5---5---------5---7---------7---7---------7-| x2
0-------------0-------------0-------------0-------------|
--------------------------------------------------------|

-----------------------------------------------------------|
-----------------------------------------------------------|
----5h6p5-5-------5h6p5-5-------9h10p9-9-------9h10p9-9----| x2
--7---------7---7---------7---7----------7---7----------7--|
0-------------0-------------0--------------0---------------|
-----------------------------------------------------------|

--3/5---5/7---8\7---10\8---7/8\7---3/5---5/7---8\7---5/7-------|
-----------------------------------------------------------8\5-|
---------------------------------------------------------------|
---------------------------------------------------------------|
0-----0-----0-----0------0-------0-----0-----0-----0-----0-----|
---------------------------------------------------------------|

--3/5---5/7---8\7---10\8---7/8\7---3/5---5/7---8\7---5/7--------|
-----------------------------------------------------------8/10-|
----------------------------------------------------------------|
----------------------------------------------------------------|
0-----0-----0-----0------0-------0-----0-----0-----0-----0------|
----------------------------------------------------------------|
Get this song at amazon.com      Ebay     Ringtones Ringtones  


Learn to play: Songwriting, Piano, Harmonica, Guitar

Related Misc Unsigned Bands Tabs

Punk Weasels - Graffiti tabs
Fresh Off The Boat - Godly Wonders tabs
Empathicity - Unknown tabs
Leeway - Product tabs
Dagon - Antichrist Bass tabs
Purple Giraffe - Make Love To A Tree tabs
Inside Out - By A Thread tabs
Eff Those Divas - Midnight Society Bass tabs
Under War Torn Skies - Puppet tabs
616 - Wasting Time tabs
Duktil - Nunca Imagine tabs
Cracked Shell - The Craigs tabs
Junjerias Farm - Smoother tabs
Where 2 Next - Dont Quit On Me Now tabs
Driving In Neutral - On My Own tabs
House Of Zatizfaktion - Classical Heros tabs
Boys2hunks - Gone Are The Days tabs
Out Of Order - Third Evelation Bass tabs
Crumpet Mode - Sexy Terrorist tabs
Reap - Sotbdii tabs


Guitar Tabs









All tabs are property and copyright of their owners. All tabs provided for educational purposes only. Privacy Policy, DMCA