Misc Classical

Misc Classical - Pachelbels Canon Shredding Style guitar tab

Shredding Pachabel's Canon

-Adam Davis

TundraWolf_@yahoo.com

Play the first part slow(not too slow) and then go off on the last part. Make each note sound good and be sure to alternate pick. This is a very good exercise for alternate picking!

E-|----------------|-------------5-7|----------------|----------------|

B-|-3-2-3----------|---3-2-0---7----|-8-7-5-8-7-5-3-2|-0--------------|

G-|-----------2----|---------6------|----------------|---2-0-----0----|

D-|-------0-----2-4|-0--------------|----------------|-------4-2---4-2|

A-|---------0------|----------------|----------------|----------------|

D-|----------------|----------------|----------------|----------------|

    2 1 2     1 1 3    3 2   2 3 1 3  4 3 1 4 3 1        1   3 1   3 1

                    Stretch out those fingers!

E-|----------------|----------------|----------------|----------------|

B-|----------------|----------------|----------------|-------0--------|

G-|-------0-2---2-0|---4-2---2------|-0-----0--------|-0-------2-4-2-0|

D-|-0-2-4-----2----|-4-----5---5-4-2|---4-2---4-2-0-4|---4-2----------|

A-|----------------|----------------|----------------|----------------|

D-|----------------|----------------|----------------|----------------|

      1 3   1 1 1    3 3 1 4 1 4 3 1    3 1   3 1  3     3 1   1 3 1

And then...?

No LHF because you should do it anyway you can!

E-|-5---2-3-5---2-3-5---------0-2-3|-2-----0-2----------------------|

B-|---------------------0-2-3------|-----3-------------0------------|

G-|-------------------2------------|---------------0-2---2-0-2---0-2|

D-|--------------------------------|-------------4-------------4----|

A-|--------------------------------|--------------------------------|

D-|--------------------------------|--------------------------------|

E-|--------------------------------|-------------------------0-2-3-5|

B-|-----0-------------------------0|-----0---0---2-3---0-2-3--------|

G-|-0-----2-0-----------------0-2--|-0-----2---------2--------------|

D-|-------------4-2-4-2-0-2-4------|--------------------------------|

A-|--------------------------------|--------------------------------|

D-|--------------------------------|--------------------------------|

E-|-2-----0-2---0---0-----0-2-0----|--------------------------------|

B-|-----3---------3---2-3-------3-2|-3-----2-3-----------------3-2h3|

G-|--------------------------------|-----4-------------0------------|

D-|--------------------------------|-------------0-2-4---4-2-4------|

A-|--------------------------------|--------------------------------|

D-|--------------------------------|--------------------------------|

E-|--------------------------------|---------------------0------------|

B-|-----3-2-0-----------------0-2h3|-----3-2-3---2-0-2-3---3-2-3-0-2-3|

G-|-4-----------2-0-2-0---0-2------|-4--------------------------------|

D-|---------------------4----------|----------------------------------|

A-|--------------------------------|----------------------------------|

D-|--------------------------------|----------------------------------|

Get this song at:  amazon.com sheetmusicplus.com

Share your thoughts

0 Comments found