Misc Christmas

Frosty The Snowman Tabs



More from Misc Christmas

Misc Christmas Tabs
Misc Christmas Chords
Misc Christmas Bass

|-------1-0-1-3-1-0-----0-1-3-1-0-----1------------------------------|

|1-----1------------3-1-----------3-1----3-1-------1-----------------|

|--2-3---------------------------------2-----3-2-0-------------------|

|--------------------------------------------------------------------|

|--------------------------------------------------------------------|

|--------------------------------------------------------------------|



|-------1-0-1-3-1-0-----0-1-3-1-0-----1------------------------------|

|1-----1------------3-1-----------3-1----3-1-------------------------|

|--2-3---------------------------------2-----3-2-0-------------------|

|--------------------------------------------------3-----------------|

|--------------------------------------------------------------------|

|--------------------------------------------------------------------|



PLZ Rate!!!!Added by tabs-database.com and our distinguished partners
Get this song at amazon.com      Ebay     Ringtones Ringtones  


Learn to play: Songwriting, Piano, Harmonica, Guitar

Related Misc Christmas Tabs

We Three Kings tabs
Good King Wenceslas tabs
Hark The Harold Angels Sing tabs
God Rest Ye Merry Gentlemen tabs
O Little Town Of Bethleham tabs
Santa Clause Comes Tonight tabs
Christmas Eve tabs
Heat Miser And Snow Miser (intro) tabs
Ill Be Home For Christmas tabs
Hark The Herald Angel tabs
Feliz Navidad tabs
Oh Come Oh Come Emmanuel tabs
O Christmas Tree Bass tabs
First Noel tabs
Silent Night Bluegrass tabs
O Holy Night Intro tabs
Here Comes Santa Claus tabs
God Rest Ye Merry Gentelmen tabs
Dashing Through The Snow tabs
O Christmas Tree tabs


Guitar Tabs









All tabs are property and copyright of their owners. All tabs provided for educational purposes only. Privacy Policy, DMCA