Misc Cartoons

Misc Cartoons - X-men Theme Bass guitar tab

Intro

----------------------------------------------------------------------------|

---------0-0-----0-0-0-0-2-2-0-0---------0-0-----0-0-0-0-2-2-0-0------------|

-2-2-2-2-----2-2-----------------2-2-2-2-----2-2----------------------------|

----------------------------------------------------------------------------|

Main Part

---4-6-7-6-----4-------6-7-6-------4----6-7-6-4--7----6--------4------------|

-4---------4----4------------5---4------------------------------------------|

----------------------------------------------------------------------------|

----------------------------------------------------------------------------|

-4-9-11-12-11-9-----9-11-12-11-9--4----6-7-6----7--5-6----4--------4---4----|

----------------------------------------------------------------------------|

----------------------------------------------------------------------------|

----------------------------------------------------------------------------|

----------------------------------------------------------------------------|

-4-4-4-4-4-4-4-4-4-4-4-4-4-4-4-4-5-5-5-5-5-5-5-5-5-5-5-5-5-5-5-5------------|

----------------------------------------------------------------------------|

----------------------------------------------------------------------------|

----------------------------------------------------------------------------|

-7-7-7-7-7-7-7-7-7-7-7-7-5-5-5-5-4-4-4-4-4-4-4-4-4--------------------------|

----------------------------------------------------------------------------|

----------------------------------------------------------------------------|

---4-6-7-6----7-4------6-7-6-------4---6-7-6---7----6-----------------------|

-4----------------4------------5---4----------------------------------------|

----------------------------------------------------------------------------|

----------------------------------------------------------------------------|

-4-9-11-12-11-9------9-11-4-12-11-4-9-6-7-6-7----6-5---4-4------------------|

----------------------------------------------------------------------------|

----------------------------------------------------------------------------|

----------------------------------------------------------------------------|

----------------------------------------------------------------------------|

-4-4-4-4-4-4-4-4-4-4-4-4-4-4-4-4-5-5-5-5-5-5-5-5-5-5-5-5-5-5-5-5------------|

----------------------------------------------------------------------------|

----------------------------------------------------------------------------|

----------------------------------------------------------------------------|

-7-7-7-7-7-7-7-7-7-7-7-7-5-5-5-5-4-4-4-4-4-4-4-4-4--------------------------|

----------------------------------------------------------------------------|

----------------------------------------------------------------------------|

Ending

---4-6-7-6-7-4-11-16--------------------------------------------------------|

-4--------------------------------------------------------------------------|

----------------------------------------------------------------------------|

----------------------------------------------------------------------------|Added by tabs-database.com and our distinguished partners

Get this song at:  amazon.com sheetmusicplus.com

Share your thoughts

0 Comments found