Misc Cartoons

Misc Cartoons - Swat Kats Theme guitar tab

Intro:

e|---------10---3-4-------------4-3-------3---7--10---6---3--10--6--12--------|

B|-----------------------2--5---------5---------------------------------------|

G|----------------------------------------------------------------------------|

D|--5-------------------------------------------------------------------------|

A|--5-------------------------------------------------------------------------|

E|--3-------------------------------------------------------------------------|

Part 1:

Guitar 1:

Play x3

e|----------------------------| e|-------------------|

B|----------------------------| B|-------------------|

G|--------------------------- | G|-------------------|

D|----------------------------| D|-------------------|

A|---------8-------11---6-----| A|---8-------11---6--|

E|-15\\0----6(x12)--9----4-----| E|---6(x12)--9----4--|

Guitar 2:

e|---18b20-20r18------18/--------|

B|-------------------------------|

G|-------------------------------|

D|-------------------------------|

A|-------------------------------|

E|-------------------------------|

Part 2:

Guitar 1:

e|------------------------------------------------|

B|------------------------------------------------|

G|------------------------------------------------|

D|------------------------------------------------|

A|----10--------13--8-----10--------8-8-----------|

E|----8-(x12)---11--6-----8-(x12)---6-6-----------|

Guitar 2:

e|----------15--17--15--13-15-15v----------15--17--15--13-18-18--------------|

B|--13-13----------------------------13-13-----------------------------------|

G|---------------------------------------------------------------------------|

D|---------------------------------------------------------------------------|

A|---------------------------------------------------------------------------|

E|---------------------------------------------------------------------------|

Part 3:

Guitar 1:

e|---------------------------------------------------------------------|

B|---------------------------------------------------------------------|

G|---------------------------------------------------------------------|

D|---------------------------------------------------------------------|

A|-------------------------------10-10-------------------------10--10--|

E|--------6/11--11-11h13--13-13--8--8----6/11--11-11h13-13-13--8---8---|

Guitar 2:

e|--15-17-18-17-15--17--13---20---15-17-18-17-15-17-13-15-15-----------------|

B|---------------------------------------------------------------------------|

G|---------------------------------------------------------------------------|

D|---------------------------------------------------------------------------|

A|---------------------------------------------------------------------------|

E|---------------------------------------------------------------------------|

Ending:

Guitar 1:

e|------------------------------------------------|

B|------------------------------------------------|

G|------------------------------------------------|

D|------------------------------------------------|

A|----10--------13--8-----10--------8-8-----10-10-|

E|----8-(x12)---11--6-----8-(x12)---6-6-----8--8--|

Guitar 2:

e|----------15--17--15--13-15-15v----------15--17--15--13-18-18-----20-20v---|

B|--13-13----------------------------13-13-----------------------------------|

G|---------------------------------------------------------------------------|

D|---------------------------------------------------------------------------|

A|---------------------------------------------------------------------------|

E|---------------------------------------------------------------------------|

Added by tabs-database.com and our distinguished partners

Get this song at:  amazon.com sheetmusicplus.com

Share your thoughts

0 Comments found