Misc Cartoons

Misc Cartoons - Spiderman Theme guitar tab

-------------------------------------------------------------------------------

Spideyman Theme

-------------------------------------------------------------------------------

Tabbed by: t3h Flick.

Email: webmaster at tabs-database.com.com

Tuning: standard (eadgbe)

k kiddies, i've noticed this is up already, but i wanna put up the version that I myself

come to love (and parody, too) quite dearly. I'll give you the riffs and the right

to play it by :)

The G Riff (play 4 times)

e|---------------------------|

B|---------------------------|

G|---------------------------|

D|---------------------------|

A|-(pm)----1--5---4--3--1----|

E|-(pm)-3-----------------3--|

The C Riff (play 2 times)

e|---------------------------|

B|---------------------------|

G|---------------------------|

D|-(pm)----1--5---4--3--1----|

A|-(pm)-3-----------------3--|

E|---------------------------|

The D Riff (once)

e|---------------------------|

B|---------------------------|

G|---------------------------|

D|-(pm)----4--7---6--5--4----|

A|-(pm)-3--------------------|

E|---------------------------|

the order goes

G, G, G, G, C, C, G, G, D, C, G, G,

then you play that through most of the verse. here are chords :D

Gm7 Gm7

Spiderman, Spiderman,

Gm7 Gm7

Does whatever a spider can

Cm7 Cm7#9

Spins a web, any size,

Gm7 Gm7

Catches thieves just like flies

D7 Cm7 Gm7

Look Out! Here comes the Spiderman.

Gm7 Gm7

Is he strong? Listen bud,

Gm7 Gm7

He's got radioactive blood.

Cm7 Cm7#9

Can he swing from a thread

Gm7 Gm7

Take a look overhead

D7 Cm7 Gm7

Hey, there There goes the Spiderman.

Bb5 F

In the chill of night

Cm7 Gm7

At the scene of a crime

Bb5 F

Like a streak of light

Cm7 D9

He arrives just in time.

Gm7

Spiderman, Spiderman

Gm7

Friendly neighborhood Spiderman

Cm7

Wealth and fame he's ingnored

Gm7

Action is his reward.

D7 Cm7 Gm7

To him, life is a great big bang up

D9 C9 Gm

Whenever there's a hang up

D9 C9 Gmadd9 *whammy if you like it, I do :D*

You'll find the Spider man.

K. I'll define all these chords for yeh now

Gm7 Cm7 Cm7#9 D7 Bb5 F D9 C9 Gmadd9

e|--3---3-----6-------6-------8---5----6-----5------5-----3---------5---------|

B|--6---3-----4-------4-------7---7----3-----6------5-----3---------3---------|

G|--3-O-3-----5-------5-------7-O-5----3-----5------5-----3---------3---------|

D|--5-R-3-----5-------5-------7-R-7----3-----7------4-----2---------3---------|

A|--5---5-----3/6-----6-------9---5----5-----8------5-----3---------5---------|

E|--3---3-----x-------6-------10--x----x-----x------5-----3---------3---------|

Hope this brings you back to ofnd childhood memories :D

~Flick.

IF THIS TABS SHOWS UP SOMEWHERE OTHER THAN U-G, I DID NOT POST IT..

email me @ webmaster at tabs-database.com.com if you can propose a fix for it :DAdded by tabs-database.com and our distinguished partners

Get this song at:  amazon.com sheetmusicplus.com

Share your thoughts

0 Comments found