Misc Cartoons

Misc Cartoons - Spiderman Theme Bass guitar tab

OK, i transposed this from my 1st trumpet part from band, and it's my first tab,

so be merciful oh ye great tab readers.

INTRO-2x

G|----------------------------|

D|0-3-7--5-3-0--0-3-7-77-5-3-0|

A|----------------------------|

E|----------------------------|

G|------------------------------|

D|5-8-12--10-8-5--0-3-7-77-5-3-0|

A|------------------------------|

E|------------------------------|

G|------------|

D|8/7-75-35-30|

A|------------|

E|------------|

Swing Section-1x

G|-----------------------|

D|7-8-10--87--5-3-5-3-2-0|

A|-----------------------|

E|-----------------------|

G|-----------------------|

D|7-8-10--87--5-3-5-3-5-7|

A|-----------------------|

E|-----------------------|

Repeat Intro-1xAdded by tabs-database.com and our distinguished partners

Get this song at:  amazon.com sheetmusicplus.com

Share your thoughts

0 Comments found