Misc Cartoons

Misc Cartoons - South Park - Something In My Front Pocket guitar tab

MISC CARTOONS (SOUTH PARK)

"Something In My Front Pocket"

tabbed by: Dave

This is the (badass) song that Butters tapdances to. I'd say it's about 95%-99% correct

(no guarantees on tabs done by ear:P).

You can listen to it here:

http://images.southparkstudios.com/media/sounds/805/MYFRONTPOCKET2.wav

GUITAR

E-x-3--x-6--x-5-5--4--|--x-3--x-6--------8s--|-------10--8-------------3---6-----------|

B-x-5--x-8--x-6-6--5--|--x-5--x-8--------8s--|-------10-10----x-6-8s---5---8---3-3-----|

G-x-5--x-6--x-7-6--5--|--x-5--x-6---8h9------|--10---10-10----x-7-7s---5---6---4-4-----|

D---------------------|----------------------|--10-----------------------------5-5-----|

A---------------------|----------------------|-----------------------------------------|

E---------------------|----------------------|-----------------------------------------|

BASS

G---------------------|----------------------|---------------------|------------------|

D---------------------|----------------------|---------------------|------------------|

A--3-----6-5-----2----|--3-----6-5---8--10---|---------------------|--3-----6-5-----2-|

E----3-4-----4-3------|----3-4---------------|--1----1-1-----3---3-|----3-4-----4-3---|

GUITAR

E-x-3--x-6--x-5-5--4--|--x-3--x-6--------8s--|-------10--8-------------3---6-----------|

B-x-5--x-8--x-6-6--5--|--x-5--x-8--------8s--|-------10-10----x-6-8s---5---8---3-3-----|

G-x-5--x-6--x-7-6--5--|--x-5--x-6---8h9------|--10---10-10----x-7-7s---5---6---4-4-----|

D---------------------|----------------------|--10-----------------------------5-5-----|

A---------------------|----------------------|-----------------------------------------|

E---------------------|----------------------|-----------------------------------------|

BASS

G---------------------|----------------------|---------------------|------------------|

D---------------------|----------------------|---------------------|------------------|

A--3-----6-5-----2----|--3-----6-5---8--10---|---------------------|--3-----6-5-----2-|

E----3-4-----4-3------|----3-4---------------|--1----1-1-----3---3-|----3-4-----4-3---|

GUITAR

E---3---5---5---4-----------||

B---5---6---6---5---8---7---||

G---5---7---6---5---7---8---||

D---------------------------||

A---------------------------||

E---------------------------||

BASS

G---------------------------||

D---------------------------||

A--3-3-----5-5------6---5---||

E------4-4------7-7---------||

This last bass part is a complete guess. I have noooo idea. If you do,

leave corrections in the Comments section and I'll be sure to add them.

Get this song at:  amazon.com sheetmusicplus.com

Share your thoughts

0 Comments found