Misc Cartoons

Misc Cartoons - Sonic The Hedgehog Theme guitar tab

This is the Theme song for The Sonic The Hedgehog show. I liked this show till it got

cancled. This is the Old show not Sonic X the very old one.

e|-----------------------------------------------------|

B|-----------------------------------------------------|

G|-----------------------------------------------------|

D|-----------------------------------------3-2-0---0-2-|

A|--------0-2---2--1---1--0---0--------0-2-------3-----|

E|--0-2-3-----3------2------1----0-2-3-----------------|

this is for the new "Teenage Mutant Ninja Turtles" show

e|-------5-6-5---5------------------------------------------|

B|-5-5-8-------8--------------------------------------------|

G|----------------------------------------------------------|

D|----------------------------------------------------------|

A|----------------------------------------------------------|

E|----------------------------------------------------------|

Get this song at:  amazon.com sheetmusicplus.com

Share your thoughts

0 Comments found