Misc Cartoons

Misc Cartoons - Small World Theme guitar tab

----------------------------------------------------------------------------

Small World - Miscellaneous

----------------------------------------------------------------------------

Tabbed by: Demyan

email: demyanyu@yahoo.com

It could be a really good joke to play it like a solo when you're jammin'.

If there's someone interested in wholo song for guitar, email me, or just leave it at the

forum, so I'll figure it out... Respect

verse:

e|--------7----5----------------------5------------------------|

H|----------8----8-8--7-----7------------7-7-8-7--5------------|

G|-4-5-7-----------------------4-5-7-----------------7---------|

D|-------------------------------------------------------------|

A|-------------------------------------------------------------|

E|-------------------------------------------------------------|

e|-----------------5-7--5--------5-7-8--7-5-------7/8-7---5----|

H|--------------8---------8--5------------------------------8--|

G|--7---4-5-7---------------------------------7----------------|

D|-------------------------------------------------------------|

A|-------------------------------------------------------------|

E|-------------------------------------------------------------|

CHORUS:

e|-----5--7-------5-55--------7-8-7------7--77-----------------|

H|--8---------8-----------10---------10------------------------|

G|-------------------------------------------------------------|

D|-------------------------------------------------------------|

A|-------------------------------------------------------------|

E|-------------------------------------------------------------|

e|-7--8--10--7-8-8---8p7p5-------------------------------------|

H|------------------------8----7-8-----------------------------|

G|--------------------------7----------------------------------|

D|-------------------------------------------------------------|

A|-------------------------------------------------------------|

E|-------------------------------------------------------------|

coments, suggestions, email.

Get this song at:  amazon.com sheetmusicplus.com

Share your thoughts

0 Comments found