Misc Cartoons

Misc Cartoons - Scooby-doo Theme guitar tab

Misc Cartoons

Scooby-Doo Theme

TV Themes

Tuning: Standard

Transcribed by Soch H.

Theme:

|-------------------------------------------------------------|

|-14-14-12-12------12-14------------------12s14-14-12---------|

|-------------14----------11----11-13-----------------14------|

|-------------------------------------14----------------------|

|-------------------------------------------------------------|

|-------------------------------------------------------------|

|-------------------------------------------------------------|

|-14-14-12-12------12-14--15--------------12s14-14-12---------|

|-------------14----------------11-13-----------------14------|

|-------------------------------------14----------------------|

|-------------------------------------------------------------|

|-------------------------------------------------------------|

|-------------------------------------------------------------|

|-14-14-12-12------12-14------------------12s14-14-12---------|

|-------------14----------11----11-13-----------------14------|

|-------------------------------------14----------------------|

|-------------------------------------------------------------|

|-------------------------------------------------------------|

|-------------------------------------------------------------|

|-14-14-12-12------12-14--15--------------12s14-14-12---------|

|-------------14----------------11-13-----------------14------|

|-------------------------------------14----------------------|

|-------------------------------------------------------------|

|-------------------------------------------------------------||

(0:39) You know we've got a mystery to solve...

|---------------------------------------------------------------------------|

|----12-14-15-14-15-14-15-14-15-14-15-14-15-14--15-15-15-14--15b17-15b17-14-|

|-14------------------------------------------------------------------------|

|---------------------------------------------------------------------------|

|---------------------------------------------------------------------------|

|---------------------------------------------------------------------------|

|---------------------------------------------------------------------------|

|----12-14-15-14-15-14-15-14-15-14-15-14-15-14--15-16-17----------17-17--15-|

|-14------------------------------------------------------------------------|

|---------------------------------------------------------------------------|

|---------------------------------------------------------------------------|

|---------------------------------------------------------------------------|

Theme: (0:53)

|-------------------------------------------------------------|

|-14-14-12-12------12-14------------------12s14-14-12---------|

|-------------14----------11----11-13-----------------14------|

|-------------------------------------14----------------------|

|-------------------------------------------------------------|

|-------------------------------------------------------------|

|-------------------------------------------------------------|

|-14-14-12-12------12-14--15--------------12s14-14-12---------|

|-------------14----------------11-13-----------------14------|

|-------------------------------------14----------------------|

|-------------------------------------------------------------|

|-------------------------------------------------------------|

Legend:

s - Slide

b - BendAdded by tabs-database.com and our distinguished partners

Get this song at:  amazon.com sheetmusicplus.com

Share your thoughts

0 Comments found