Misc Cartoons

Misc Cartoons - Sailor Moon Theme guitar tab

tuned to e

\ = slide down

e|---------0----3----7------7-5------5-3----2----5-----------------------------|

B|---0-------------------------------------------------------------------------|

G|-----------------------------------------------------------------------------|

D|-----------------------------------------------------------------------------|

A|-----------------------------------------------------------------------------|

E|-----------------------------------------------------------------------------|

e|--------------2----5------5-3------3-2----0----3-----------------------------|

B|--0----4---------------------------------------------------------------------|

G|-----------------------------------------------------------------------------|

D|-----------------------------------------------------------------------------|

A|-----------------------------------------------------------------------------|

E|-----------------------------------------------------------------------------|

e|--------0----3----7------7-5------5-7----10----8-----------------------------|

B|--0--------------------------------------------------------------------------|

G|-----------------------------------------------------------------------------|

D|-----------------------------------------------------------------------------|

A|-----------------------------------------------------------------------------|

E|-----------------------------------------------------------------------------|

e|-----8-7-5-7----5----3-2----0--8-7-5-7----12-12-12/0-------------------------|

B|-----------------------------------------------------------------------------|

G|-----------------------------------------------------------------------------|

D|-----------------------------------------------------------------------------|

A|-----------------------------------------------------------------------------|

E|-----------------------------------------------------------------------------|

Get this song at:  amazon.com sheetmusicplus.com

Share your thoughts

0 Comments found