Misc Cartoons

Misc Cartoons - Pokemon Theme guitar tab

Intro -

e/-10-10-10-10-10-10-10-10-|-10-10-10-10-10-10-10-10-|

b/-11-11-11-11-11-11-11-11-|-10-10-10-10-10-10-10-10-|

g/-12-12-12-12-12-12-12-12-|-10-10-10-10-10-10-10-10-|

d/-------------------------|-------------------------|

a/-------------------------|-------------------------|

e/-------------------------|-------------------------|

Verse -

e/-10-10-10-10-10-10-10-10-|-10-10-10-10-10-10-10-10-|

b/-11-11-11-11-11-11-11-11-|-10-10-10-10-10-10-10-10-|

g/-12-12-12-12-12-12-12-12-|-10-10-10-10-10-10-10-10-|

d/-------------------------|-------------------------|

a/-------------------------|-------------------------|

e/-------------------------|-------------------------|

e/-10-10-10-10-10-10-10-10-|-10-10-10-10-10-10-10-10-|

b/-11-11-11-11-11-11-11-11-|-10-10-10-10-10-10-10-10-|

g/-12-12-12-12-12-12-12-12-|-10-10-10-10-10-10-10-10-|

d/-------------------------|-------------------------|

a/-------------------------|-------------------------|

e/-------------------------|-------------------------|

e/-11-11-11-11-11-11-11-11-|-10-10-10-10-10-10-10-10-|

b/-11-11-11-11-11-11-11-11-|-11-11-11-11-11-11-11-11-|

g/-12-12-12-12-12-12-12-12-|-10-10-10-10-10-10-10-10-|

d/-------------------------|-------------------------|

a/-------------------------|-------------------------|

e/-------------------------|-------------------------|

e/-10-10-10-10-10-10-10-10-|-10-10-10-10-10-10-10-10-|

b/-11-11-11-13-13-13-10-10-|-10-10-10-10-10-10-10-10-|

g/-10-10-10-12-12-12-10-10-|-10-10-10-10-10-10-10-10-|

d/-------------------------|-------------------------|

a/-------------------------|-------------------------|

e/-------------------------|-------------------------|

Chorus -

e/-----------------|-----------------|-----------------|

b/-----------------|-----------------|-----------------|

g/-8-8-8-8-8-8-8-8-|-----------------|-8-8-8-8-8-8-8-8-|

d/-8-8-8-8-8-8-8-8-|-8-8-8-8-8-8-8-8-|-8-8-8-8-8-8-8-8-|

a/-6-6-6-6-6-6-6-6-|-8-8-8-8-8-8-8-8-|-6-6-6-6-6-6-6-6-|

e/-----------------|-6-6-6-6-6-6-6-6-|-----------------|

e/-------------------------|

b/-------------------------|

g/-10-10-10-10-10-10-10-10-|

d/-10-10-10-10-10-10-10-10-|

a/-08-08-08-08-08-08-08-08-|

e/-------------------------|

{--------not sure--------}

e/-----------------|-----------------|--------------------------|

b/-----------------|-----------------|--------------------------|

g/-8-8-8-8-8-8-8-8-|-----------------|-------8--8-8-8-8-8-8-8-8-|

d/-8-8-8-8-8-8-8-8-|-8-8-8-8-8-8-8-8-|-8-x-7-8--8-8-8-8-8-8-8-8-|

a/-6-6-6-6-6-6-6-6-|-8-8-8-8-8-8-8-8-|-8-x-7-6--6-6-6-6-6-6-6-6-|

e/-----------------|-6-6-6-6-6-6-6-6-|-6-x-5--------------------|

Thats all i've got so far, but i think thats bassically it.

it goes:-

intro,

verse x2,

chorus.

thnx samoates1112

Added by tabs-database.com and our distinguished partners

Get this song at:  amazon.com sheetmusicplus.com

Share your thoughts

0 Comments found