Misc Cartoons

Misc Cartoons - Pink Panther Theme guitar tab

Date: Tue, 11 Nov 1997 21:59:24 -0000

From: kupfer

Subject: new tab

-----------------------------------------------------------------

PINK PANTHER THEME Henry Mancini

-----------------------------------------------------------------

transcribed by kupfer email mkupfer@sprint.ca

intro (sounds good played on bass too)

e|-----------|------------|--------------------|------------|-

B|-----------|------------|--------------------|------------|-

G|-----------|------------|--------------------|------------|-

D|-----------|------------|--------------------|------------|-

A|--11-12-13-|-14---------|(14)-------11-12-13-|-14---------|

E|---9-10-11-|-12---------|(12)--------9-10-11-|-12---------|-

the rhythm part is written on the bottom two strings

e|------------------|--------------|-----------------|-

B|------------------|--------------|-----------------|-

G|------------------|--------------|-----------------|-

D|------------------|--------------|---------------1-|-

A|(14)-----14-13-12-|-10-----------|(10)----11-12-13-|-

E|(12)-----12-11-10-|--8-----------|(8)------9-10-11-|-

e|----------------------|-----------------|-----------------|-

B|----------------------|-------1-0-----0-|-----------------|-

G|----------------------|-------------0---|-3-----2-0-------|-

D|-2------4-5----------1|-2-4-5-----2-----|-----------2-0-2-|-

A|-14-------------------|---------13-12-11|-----------------|-

E|-12-------7-----------|-12------11-10-9-|-8-----3---------|-

e|----------------|-------------------|---------------0--|-

B|----------------|-------------------|-------1-0---0----|-

G|----------------|-------------------|-----------0------|-

D|-2------------1-|-2------4-5------1-|-2-4-5------------|-

A|----------------|-------------------|------------------|-

E|-8------9-10-11-|-12-------7--------|-12-------10-11-12|-

e|---------------|-----------------|-------------------|-

B|-4-------------|-----------------|-------------------|-

G|---------------|-----------------|-------------------|-

D|---------------|---------------1-|-2------4-5------1-|-

A|---------------|-----------------|-------------------|-

E|-13----8-------|-13------9-10-11-|-12-------7--------|-

e|------------------|----------------|-------------------|-

B|-------1-0------0-|----------------|-------------------|-

G|-------------0----|-3----2-0-------|-------------------|-

D|-2-4-5-----2------|----------2-0-2-|(2)----------------|-

A|------------------|----------------|-------------------|-

E|-12-------11-10-9-|-8----3---------|-8---------9-10-11-|-

e|----------------|-----------------|--------------------|-

B|----5-3---------|--s---s---s---s--|--------------------|-

G|--------4-2-0---|-3\2-3\2-3\2-3\2-|-0------------------|-

D|--------------2-|-----------------|---2-0-2-2----------|-

A|----------------|-----------------|-7------------------|-

E|-12-------------|-----------------|---------7----------|-

e|-------------|----------------|----------------|-

B|-------------|----------------|----------------|-

G|-------------|-0--------------|----------------|-

D|(2)----------|---2-0-2-2------|(2)-------------|-

A|-7-----6-5-4-|-3--------------|-3--------4-5-6-|-

E|-------------|---------3------|----------------|-

Emaj9

e|---------------|-------------|---------------||-

B|---------------|-----------4-|-7-------------||-

G|-0-------------|-------------|-8-------------||-

D|---2-0-2-2-----|(2)----------|-6-------------||-

A|-7-------------|-7-----4-5-6-|-7-------------||-

E|---------7-----|-------------|---------------||-

Get this song at:  amazon.com sheetmusicplus.com

Share your thoughts

0 Comments found