Misc Cartoons

Misc Cartoons - Pingu guitar tab

Tab:pingu

by nathan

this is my first eva tab. its not perfect but its good and easy

e|-7--------------|-7------------------|

B|---9--10--9--7--|----9--10--14--12---|

G|----------------|--------------------|

D|----------------|--------------------|

A|----------------|--------------------|

E|----------------|--------------------|

e|----12-----------9-------7-----5-|-----------12--0--|

B|-12----12--10--9---9-8-7---7-6---|--6-7-9-12--------|

G|---------------------------------|------------------|

D|---------------------------------|------------------|

A|---------------------------------|------------------|

E|---------------------------------|------------------|

Get this song at:  amazon.com sheetmusicplus.com

Share your thoughts

0 Comments found