Misc Cartoons

Misc Cartoons - Petit Ours Brun Theme guitar tab

The song from the french cartoon "Petit Ours Brun",

known as "Little Brown Bear" in english,

but I haven't got the lyrics.

I know it's crap but I like it.....

Any comments, please pierreyvesthevenet@hotmail.com

Hope you ll like it...

e//------------------------------------------------------------------------------------|

B//-----------------10--7--7------------10--8-8-------10---10----10---10---------------|

G//---7-------7----------------7--7----7----------9------------------------------6-7---|

D//-------7---------------------------7--------------7----7-----7-----7----7-7-9-------|

A//------------------------------------------------------------------------------------|

E//------------------------------------------------------------------------------------|

e//-------------10---------------------------------7-------------------|

B//-10-10-10-10-----12-12-10-12-10-12-7---7-7-7-7----8-8---5-7-5-7-----|

G//----------------------------------------------------------------7---|

D//--------------------------------------------------------------------|

A//--------------------------------------------------------------------|

E//--------------------------------------------------------------------|

e//---------------------------------------|

B//---10---10----10---10------------------|

G//------------------------------6-7------|

D//-7-----7-----7-----7----7-7-9----------|

A//---------------------------------------|

E//---------------------------------------|

Petit petit ours brun

C'est un gentil galopin

Calin coquin coquin calin

Petit ours brun

Il aime bien sa maman

Son papa aussi

Il aime bien son papa

Sa maman aussi

Calin coquin coquin calin

Petit ours brun

Get this song at:  amazon.com

Share your thoughts

0 Comments found