Misc Cartoons

Misc Cartoons - Peanuts Theme guitar tab

I was screwin around 1 day and found out that the theme from Charlie Brown is like the

easiest thing to play from classic cartoons... so, i give you:

The Peanuts Theme

Misc. Soundtrack

slight jazz style

|--------------------------|

|--------------------------|

|--0-2--2-0----0------0-2-2|

|3----------3----3--3------|

|--------------------------|

|--------------------------|

|-------------------------------|

|-------------------------------|

|--0-2--2-0----0------0-0-------|

|3----------3----3--3------0-3-3|

|-------------------------------|

|-------------------------------|

|--------------------|

|--------------------|

|--3-3-3-3--0---2-0--| x2

|3------------3-----3|

|--------------------|

|--------------------|

|-------|

|-------|

|--0-2-2|

|3------|

|-------|

|-------|

just repeat this alot, and improv a solo when u want to... and there's definitley

supposed to be a bass part and maybe some drums, but i can't do more than guitar

NOTE: To all y'all that gave me bad comments, guess whose fault it is for not knowing

what string it is: yours! This is basic tab, and if u can't read it, your problem, not

mine! Thanks, you fuckin losers!

Get this song at:  amazon.com

Share your thoughts

0 Comments found