Misc Cartoons

Misc Cartoons - Naruto- (i Siad Im Naruto) guitar tab

Guitar 1

E |-----------------------------------------0------------------------|

B |----------------—---1-3-3-1-3-1-3-3-1-3----3-0--------------------|

G |--2-0-2-0-2-2-0-2------------------------------2-2-0-2------------|2x

D |------------------------------------------------------------------|

A |------------------------------------------------------------------|

E |------------------------------------------------------------------|

Guitar 2

E |--5--8-10-12--------------------------------------------------------|

B |----------------—---------------------------------------------------|

G |--------------------------------------------------------------------|2x

D |--------------------------------------------------------------------|

A |--------------------------------------------------------------------|

E |--------------------------------------------------------------------|

guitar 2

E |----------12-10-8---------12-10-15-12------------12-10-8-12-10-15-17-12|

B |-10-8-10-----—-----10-8-10---------------10-8-10--------------------|

G |--------------------------------------------------------------------|

D |--------------------------------------------------------------------|

A |--------------------------------------------------------------------|

E |--------------------------------------------------------------------|

tapos ulit ulit sa umpisa pero dun sa guitar 2 sahuli imbis na

12, 15 na..

eto na ung huli...

Guitar 2

E |-17-15-12-15-10-12-10-8-10-5-8-5-3-5-3-3-3-5-3-5-15 17--------------|

B |----------------—---------------------------------------------------|

G |--------------------------------------------------------------------|

D |--------------------------------------------------------------------|

A |--------------------------------------------------------------------|

E |--------------------------------------------------------------------|

Get this song at:  amazon.com sheetmusicplus.com

Share your thoughts

0 Comments found