Misc Cartoons

Misc Cartoons - My Dad The Rock Star Theme guitar tab

My Dad the Rock Star Theme

Nicktoons Productions

Standard tuning (Distortion)

Guitar 1 and Guitar 2

Guitar 1 Verse 1 "It's so hard just to feel normal..."

E|--------------------------|

B|--------------------------|

G|--------------------------| x2

D|--5-x8--------5-x8--------|

A|--3-----5-x8--3-----5-x8--|

E|--------3-----------3-----|

PM..........................

On the last time Guitar 2 plays "Everything is totally deranged..."

E|---------------|---------------|

B|----5---6---5--|---------------|

G|--5---5---5----|----4---5---4--|

D|---------------|--5---5---5----|

A|---------------|---------------|

E|---------------|---------------|

E|---------------|---------------|

B|----5---6---5--|---------------|

G|--5---5---5----|----4---4---4--|

D|---------------|--5---5---5----|

A|---------------|---------------|

E|---------------|---------------|

Guitar 1 Chorus 1 "Sometimes is gets..." and "Mostly I feel..."

C F G

E|--------------|

B|--5--5--------|

G|--5--5--2--4--|

D|--5--5--3--5--|

A|--3--3--3--5--|

E|--------1--3--|

Guitar 2 Chorus 1, only on the "So unbarable..." and "Unbelivable..."

E|-------------|

B|-------------|

G|-------------|

D|-------------|

A|--5/7\\5------|

E|--------8\\7--|

End of Chorus Guitar 1 and 2 "And I'm a freak 'cause my dad is a rock star yeah..."

Guitar 1 x2 Guitar 1 and 2 x1

E|--------------|------------------------------------------|

B|--------------|------------------------------------------|

G|--------------|-----------10-10-x------------------------|

D|--5-x8--------|--10-10-x--10-10-x--5-5-x--10-10--9-9-9~--|

A|--3-----5-x8--|--10-10-x--8--8--x--5-5-x--10-10--9-9-9~--|

E|--------3-----|--8--8--x-----------3-3-x--8--8---7-7-7~--|

PM..............

Guitar 1 Verse 2 "That's it, the party's over..."

E|--------------------------|

B|--------------------------|

G|--------------------------| x2

D|--5-x8--------5-x8--------|

A|--3-----5-x8--3-----5-x8--|

E|--------3-----------3-----|

PM..........................

On the last time Guitar 2 plays "I just wanna get a little more control..."

E|---------------|---------------|

B|----5---6---5--|---------------|

G|--5---5---5----|----4---5---4--| (It may not be the right pattern,

D|---------------|--5---5---5----|

A|---------------|---------------| but I know they're the right notes)

E|---------------|---------------|

E|---------------|---------------|

B|----5---6---5--|---------------|

G|--5---5---5----|----4---4---4--|

D|---------------|--5---5---5----|

A|---------------|---------------|

E|---------------|---------------|

Guitar 1 Chorus 2 "Sometimes is gets..." and "Mostly I feel..."

C F G

E|--------------|

B|--5--5--------|

G|--5--5--2--4--|

D|--5--5--3--5--|

A|--3--3--3--5--|

E|--------1--3--|

Guitar 2 Chorus 2, only on the "So unbarable..." and "Unbelivable..."

E|-------------|

B|-------------|

G|-------------|

D|-------------|

A|--5/7\\5------|

E|--------8\\7--|

End of Chorus Guitar 1 and 2 "And I'm a freak 'cause my dad is a rock star yeah..."

Guitar 1 x1 Guitar 1 and 2 x2

E|--------------|------------------------------------------|

B|--------------|------------------------------------------|

G|--------------|-----------10-10-x------------------------|

D|--5-x8--5-x8--|--10-10-x--10-10-x--5-5-x--10-10--9-9-9~--|

A|--3-----2-----|--10-10-x--8--8--x--5-5-x--10-10--9-9-9~--|

E|--------------|--8--8--x-----------3-3-x--8--8---7-7-7~--|

PM..............

Outro (Not so sure about this)

E|--15--12---------------------13--|

B|----------15--12-----------------|

G|------------------14--14/15------|

D|---------------------------------|

A|---------------------------------|

E|---------------------------------|Added by tabs-database.com and our distinguished partners

Get this song at:  amazon.com sheetmusicplus.com

Share your thoughts

0 Comments found