Misc Cartoons

Misc Cartoons - Martin Mystery: Attack Of The Mothman guitar tab

At The Lab

|--------------------------------|

|--------------------------------|

|7-8-9-10------------------------|

|---------10-11-12-13------------|x3

|--------------------------------|

|--------------------------------|

Marvin

|--------------------------------|

|--------------------------------|

|--------------------------------|

|--------------------------------|

|--------------------------------|

|0-7b-7b-9b-7b-5b-3b-5b----------|

The Center

|--------------------------------|

|--------------------------------|

|--------------------------------|

|7---6-7-8--10-9-----------------|

|--7-----------------------------|

|--------------------------------|

The Town

|--------------------------------|

|--------------------------------|

|--------------------------------|

|0--5----------------------------|

|------5--0----------------------|

|--------------------------------|

|16----17----16----17------------|

|---14----15----14----15---------|

|--------------------------------|

|--------------------------------|

|--------------------------------|

|--------------------------------|

|12----13----12----13------------|

|---10----11----10----11---------|

|--------------------------------|

|--------------------------------|

|--------------------------------|

|--------------------------------|

Biology Room

|19-17-19-17---------------------|

|--------------------------------|

|--------------------------------|

|--------------------------------|

|--------------------------------|

|--------------------------------|

|15----17-15--15----17-15--------|

|---12-----------12--------------|

|--------------------------------|

|--------------------------------|

|--------------------------------|

|--------------------------------|

In The Rain

|--------------------------------|

|--------------------------------|

|7-8-9-10------------------------|

|---------10-11-12-13------------|

|--------------------------------|

|--------------------------------|

In The Campus Room

|15----14----15----14------------|

|---13----13----13----13---------|

|--------------------------------|

|--------------------------------|

|--------------------------------|

|--------------------------------|

The Cacoon

|--------------------------------|

|--------------------------------|

|--------------------------------|

|5--3----------------------------|

|------3--5----------------------|

|--------------------------------|

White Ceder Forrest

|--------------------------------|

|--------------------------------|

|--------------------------------|

|11-12-13-12-11-12-13-12---------|

|--------------------------------|

|--------------------------------|

|--------------------------------|

|--------------------------------|

|--------------------------------|

|11-12-13-12---------------------|

|------------11-12-13-12---------|

|--------------------------------|

|9----5----6-8--10---------------|

|-777--777--7-7---7--------------|

|--------------------------------|

|--------------------------------|

|--------------------------------|

|--------------------------------|

|9---4---6-8---------------------|

|-777-777-7----------------------|

|--------------------------------|

|--------------------------------|

|--------------------------------|

|--------------------------------|

Defeat Of Mothman

|--9~-9-12~-12-15~-15-10-9~------|

|7-------------------------------|

|--------------------------------|

|--------------------------------|

|--------------------------------|

|--------------------------------|

The Capture

|--------------------------------|

|--------------------------------|

|--------------------------------|

|7--7--77--5--5--55--------------|

|7--7--77--5--5--55--------------|

|5--5--55--3--3--33--------------|

The End

|----------------------------------------------------------------|

|----------------------------------------------------------------|

|---------77777777----------55555555-----------------------------|

|77777777-77777777-55555555-55555555-----------------------------|

|77777777-55555555-55555555-33333333-----------------------------|

|55555555----------33333333--------------------------------------|

PLZ RATE

Get this song at:  amazon.com sheetmusicplus.com

Share your thoughts

0 Comments found