Misc Cartoons

Misc Cartoons - Jetsons Theme guitar tab

The Jetsons theme song

|------------------------|------------------------|---------------------------|

|------------------------|------------------------|---------------------------|

|------------------------|----14-14-16-17-17---14-|-14--------16-17-18-19-13--|

|------------------------|--15---------------18---|---14-15-15--------------15|

|--------12------14--15--|------------------------|---------------------------|

|--13--------------------|------------------------|---------------------------|

Meet George Jet-son

|---------------------|----------------|--------------------------------------|

|---------------------|----------------|--------------------------------------|

|---------------------|----------------|----------------------14-15-15--------|

|-16---16-------16-14-|-16-------------|----16-14-13----16-16-----------------|

|---------16-15-------|-------13--16---|-16----------16-----------------------|

|---------------------|----------------|--------------------------------------|

Jane, His Wife

|------------------------------||---------|-----------------|-----------------|

|------------------------------||---------|-----------------|-----------------|

|-17-15------------------------||---------|-----------------|-----------------|

|-------16----15-12-12-13-14-16||-17-12-12|-----------------|-17--15-14-------|

|----------16------------------||---------|-------14--16-17-|---17-----17-14--|

|------------------------------||---------|-15--------------|-----------------|

Daugh-ter Ju-dy

|-------------------------||------------------|--------------|-----------------

|-------------------------||------------------|--------------|-----------------

|-------------------------||------------------|--------------|-----------------

|----------------------17-||-18-18------------|18------------|-13-13-13--------

|-17-14-17-16-18-19-20----||------18-15-------|----15--17-18-|-16-16-16--------

|-------------------------||------------16-14-|--------------|-----------------

His Boy El-roy

----------|--------------------|---------------------|------------------------|

----------|--------------------|---------------------|------------------------|

----------|--------------------|---------------------|------------------------|

-13-13-13-|-13-13-13--13-13-13-|-17-17-17--17-17--18-|-------18-----18--------|

-16-16-16-|-15-15-15--15-15-15-|-13-13-13--13-13-----|18-15------18-----18----|

----------|--------------------|---------------------|------------------------|

Ro-sy, the Ro-bot Maid_.

|------------------|

|------------------|

|------------------|

|--------------18--|

|-18--19-19-18-----|

|------------------|

Get this song at:  amazon.com sheetmusicplus.com

Share your thoughts

0 Comments found