Misc Cartoons

Misc Cartoons - Hellsing - Akuma No Shiwazaka Kamiwazaka guitar tab

Akuma no Shiwazaka Kamiwazaka - Music from Hellsing

tabbed by bluremi, please send corrections or praise

(hopefully praise) to (bluremi3 at yahoo.com).

The guitar on the recorded version of this song is tuned down a whole step to

a D. However, if you aren't playing along with the actual music you can

play this perfectly fine on a standard tuning, and so this is tabbed to

reflect that.

Let the base note always ring out. This should happen naturally, but it's

important for the slide at the end of the first verse.

1ST VERSE

E--------------------------------------|--------------------------------------|

B--------------------------------------|--------------------------------------|

G-----------0--------0--------0--------|-----------0--------0--------0--------|

D--------4-----4--------4--------4-----|--------4-----4--------4--------4-----|

A-----2-----------2--------2--------2--|-----2-----------2--------2--------2--|

E--0-----------------------------------|--0-----------------------------------|

E--------------------------------------|--------------------------------------|

B--------------------------------------|--------------------------------------|

G-----------0--------0--------0--------|-----------0--------0--------0--------|

D--------4-----4--------4--------4-----|--------4-----4--------4--------4-----|

A-----3-----------3--------3--------3--|-----3-----------3--------3--------3--|

E--0-----------------------------------|--0-----------------------------------|

E--------------------------------------|--------------------------------------|

B--------------------------------------|--------------------------------------|

G-----------0--------0--------0--------|-----------0--------0--------0--------|

D--------4-----4--------4--------4-----|--------4-----4--------4--------4-----|

A-----5-----------5--------5--------5--|-----5-----------5--------5--------5--|

E--0-----------------------------------|--0-----------------------------------|

E--------------------------------------|---------------------------------------|

B--------------------------------------|---------------------------------------|

G-----------0--------0--------0--------|-----------0--------0------------------|

D--------4-----4--------4--------4-----|--------4-----4------------------------|

A-----7-----------7--------7--------7--|-----7-----------7----\2---------------|

E--7-----------------------------------|--7-------------------\0---------------|

2ND VERSE

E--------------------------------------|--------------------------------------|

B--------------------------------------|--------------------------------------|

G-----------0--------0--------0--------|-----------0--------0--------0--------|

D--------4-----4--------4--------4-----|--------4-----4--------4--------4-----|

A-----2-----------2--------2--------2--|-----2-----------2--------2--------2--|

E--0-----------------------------------|--0-----------------------------------|

E--------------------------------------|--------------------------------------|

B--------------------------------------|--------------------------------------|

G-----------0--------0--------0--------|-----------0--------0--------0--------|

D--------4-----4--------4--------4-----|--------4-----4--------4--------4-----|

A-----3-----------3--------3--------3--|-----3-----------3--------3--------3--|

E--0-----------------------------------|--0-----------------------------------|

E--------------------------------------|--------------------------------------|

B--------------------------------------|--------------------------------------|

G-----------2--------2--------2--------|-----------2--------2--------2--------|

D--------2-----2--------2--------2-----|--------2-----2--------2--------2-----|

A-----0-----------0--------0--------0--|-----0-----------0--------0--------0--|

E--0-----------------------------------|--0-----------------------------------|

E--------------------------------------|--------------------------------------|

B--------------------------------------|--------------------------------------|

G-----------0--------3--------3--------|--2--------2--------0--------0--------|

D--------2-----2--------2--------2-----|-----2--------2--------2--------2-----|

A-----2-----------2--------2--------2--|--------2--------2--------2--------2--|

E--0-----------------------------------|--------------------------------------|

E--------------------------------------|--------------------------------------|

B--------------------------------------|--------------------------------------|

G-----------0--------3--------3--------|--2--------2--------0--------0--------|

D--------2-----2--------2--------2-----|-----2--------2--------2--------2-----|

A-----2-----------2--------2--------2--|--------2--------2--------2--------2--|

E--0-----------------------------------|--------------------------------------|

E--------------------------------------|--------------------------------------|

B-----------0--------------------------|--------------------------------------|

G--------0-----0--------------3--------|-----------2-----------------0--------|

D-----2-----------2--------4-----4-----|--------3-----3-----------2-----2-----|

A--2--------------------4-----------4--|-----3-----------3-----2-----------2--|

C--------------------2-----------------|--1-----------------0-----------------|

E--------------------------------------|-------------------------0------------|

B-----------0--------------------------|------------------------0-------------|

G--------0-----0--------------3--------|-----------2-----------0--------------|

D-----2-----------2--------4-----4-----|--------3-----3-------2---------------|

A--2--------------------4-----------4--|-----3-----------3---2----------------|

C--------------------2-----------------|--1-----------------0-----------------|

THIRD VERSE

E--------------------------------------|--------------------------------------|

B-----------1--------1--------1--------|-----------1--------1--------1--------|

G--------4-----4--------4--------4-----|--------4-----4--------4--------4-----|

D-----2-----------2--------2--------2--|-----2-----------2--------2--------2--|

A--0-----------------------------------|--0-----------------------------------|

C--------------------------------------|--------------------------------------|

E--------------------------------------|--------------------------------------|

B-----------1--------1--------1--------|-----------1--------1--------1--------|

G--------4-----4--------4--------4-----|--------4-----4--------4--------4-----|

D-----3-----------3--------3--------3--|-----3-----------3--------3--------3--|

A--0-----------------------------------|--0-----------------------------------|

C--------------------------------------|--------------------------------------|

E--------------------------------------|--------------------------------------|

B-----------1--------1--------1--------|-----------1--------1--------1--------|

G--------4-----4--------4--------4-----|--------4-----4--------4--------4-----|

D-----2-----------2--------2--------2--|-----2-----------2--------2--------2--|

A--0-----------------------------------|--0-----------------------------------|

C--------------------------------------|--------------------------------------|

E--------------------------------------|--------------------------------------|

B-----------1--------1--------1--------|-----------1--------1--------1--------|

G--------4-----4--------4--------4-----|--------4-----4--------4--------4-----|

D-----3-----------3--------3--------3--|-----3-----------3--------3--------0--|

A--0-----------------------------------|--0-----------------------------------|

C--------------------------------------|--------------------------------------|

E--------------------------------------|--------------------------------------|

B-----------0--------0--------0--------|-----------0--------0--------0--------|

G--------2-----2--------2--------2-----|--------2-----2--------2--------2-----|

D-----0-----------0--------0--------0--|-----1-----------1--------1--------1--|

A--0-----------------------------------|--2-----------------------------------|

C--------------------------------------|--------------------------------------|

E--------------------------------------------------------------------------0--|

B-------------------0-----------------------------------------------------0---|

G-------------0---------------0------------------------0-----------------0----|

D--------4-------------------------------4------------------------------2-----|

C-----2----------------------------------------------------------------2------|

A--0------------------------------------------------------------------0-------|

Get this song at:  amazon.com sheetmusicplus.com

Share your thoughts

0 Comments found